Oops, an error
Loading. Please wait.

Papel Contra Tijera Tab

107 views 1 this week
no commentswrite comment
1 2 3 4 5
3 more votes to show rating
add to favorites
launch autoscroll
font size
0
reset
how to read this tab
guitar tuner
×
Best way to learn
"Papel Contra Tijera"
Autoscroll
slow
fast
+/-
esc
set tempo
stop
autor de este tab: victor bolinche$.
destinacion: pA LA PEIX DEL ATAME.
NOTA: si veis ke no suena bien en esta afinacion de c#, 
subirla medio tono (re),                                  


                                                -intro-           
c#|-------------------------------------------------------------------------------------|
g#|-------------------------------------------------------------------------------------|
e |--10-10--------------------7--777777---10-10-------------10-10--7--777777------------|
b |--10-10---7--------10-10---7--777777---10-10--7--777777--10-10--7--777777----10---7--|
f#|--8--8----7--------10-10---5--555555---8--8---7--777777--8--8---5--555555----10---7--|
c#|----------5--------8--8-----------------------5--555555----------------------8----5--|


c#|------------------------------------------------------------------------------------------|
g#|------------------------------------------------------------------------------------------|
e |------10-10---7--777777---10-10-------------10-10--7--777777----------------------------7-|
b |------10-10---7--777777---10-10--7--777777--10-10--7--777777----10---7--------10-10-----7-|
f#|----5-8--8----5--555555---8--8---7--777777--8--8---5--555555----10---7------5-8--8------5-|
c#|-5-8-----------------------------5--555555----------------------8----5---5-8--------------|

  Quieren cortarnos la lengua      
     -p.m.-          -p.m.-
c#|------------------------------
g#|------------------------------
e |--777777---1010---------------
b |--777777---1010--7-777777-----
f#|--555555---8-8---7-777777-----
c#|-----------------5-555555-----


 con la tijera de la intransigencia
    ------------p.m.----------------
c#|----------------------------------|
g#|----------------------------------|
e |----------------------------------|
b |-1010-----------------------------|
f#|-10101212141415151717151515151515-|
c#|-8-8-1010121213131515131313131313-|


   con la tijera de la necedad    con la de la autoridad.
          -p.m.-          -p.m.-
c#|----------------------------------------------------------|
g#|----------------------------------------------------------|
e |-1010-7-777777--1010--------------------------------------|
b |-1010-7-777777--1010-7-777777777101010101010121212121212--|
f#|-8-8--5-555555--8-8--7-777777777101010101010121212121212--|
c#|---------------------5-5555555558-8-8-8-8-8-101010101010--|


c#|---------------------------------------------------------------------------------|
g#|---------------------------------------------------------------------------------|
e |--1010---7--777777---10-10-------------10-10--7--777777------------------------7-|
b |--1010---7--777777---10-10--7--777777--10-10--7--777777----10---7--------10-10-7-|
f#|--8-8----5--555555---8--8---7--777777--8--8---5--555555----10---7------5-8--8--5-|
c#|----------------------------5--555555----------------------8----5---5-8----------|


    Quieren callar nuestra voz
     -p.m.-          -p.m.-
c#|------------------------------
g#|------------------------------
e |--777777---1010---------------
b |--777777---1010--7-777777-----
f#|--555555---8-8---7-777777-----
c#|-----------------5-555555-----


 porque no pensamos como quieren ellos
     ------------p.m.----------------
c#|----------------------------------|
g#|----------------------------------|
e |----------------------------------|
b |-1010-----------------------------|
f#|-10101212141415151717151515151515-|
c#|-8-8-1010121213131515131313131313-|


    porque queremos ser diferentes,queremos otra realidad.
c#|----------------------------------------------------------|
g#|----------------------------------------------------------|
e |-1010-7-777777--1010--------------------------------------|
b |-1010-7-777777--1010-7-777777777101010101010121212121212--|
f#|-8-8--5-555555--8-8--7-777777777101010101010121212121212--|
c#|---------------------5-5555555558-8-8-8-8-8-101010101010--|


    Quieren taparnos la boca  Para que nadie nos pueda escuchar 
c#|--------------------------------------------------------------------|
g#|--------------------------------------------------------------------|
e |--------------------------1010-7-777777777--------------------------|
b |-44-6-666666666888888888--1010-7-777777777101010101010101010--------|
f#|-44-6-666666666888888888--8-8--5-555555555101010101010101010--------|
c#|-22-4-444444444666666666------------------8-8-8-8-8-8-8-8-8---------|


    para que solo se oiga su mensaje,   y nadie pueda dudar.
c#|-------------------------------------------------------------------------|
g#|-------------------------------------------------------------------------|
e |----------------------|--------1010-7-777777777--------------------------|
b |-¿¿¿(44)-6-666666666888888888--1010-7-777777777101010101010101010--------|
f#|-¿¿¿(44)-6-666666666888888888--8-8--5-555555555101010101010101010--------|
c#|-¿¿¿(22)-4-444444444666666666------------------8-8-8-8-8-8-8-8-8---------|


c#|---------------------------------------------------------------------------------|
g#|---------------------------------------------------------------------------------|
e |--1010---7--777777---10-10-------------10-10--7--777777------------------------7-|
b |--1010---7--777777---10-10--7--777777--10-10--7--777777----10---7--------10-10-7-|
f#|--8-8----5--555555---8--8---7--777777--8--8---5--555555----10---7------5-8--8--5-|
c#|----------------------------5--555555----------------------8----5---5-8----------|


  Los que gestionan la percepción
  -p.m.-          -p.m.-
c#|------------------------------
g#|------------------------------
e |--777777---1010---------------
b |--777777---1010--7-777777-----
f#|--555555---8-8---7-777777-----
c#|-----------------5-555555-----


   solo les dan la palabra a sus amos,
    ------------p.m.----------------
c#|----------------------------------|
g#|----------------------------------|
e |----------------------------------|
b |-1010-----------------------------|
f#|-10101212141415151717151515151515-|
c#|-8-8-1010121213131515131313131313-|


 sumisos a la mano que les paga,a unos dan voz y a los otros los callan.
c#|----------------------------------------------------------|
g#|----------------------------------------------------------|
e |-1010-7-777777--1010--------------------------------------|
b |-1010-7-777777--1010-7-777777777101010101010121212121212--|
f#|-8-8--5-555555--8-8--7-777777777101010101010121212121212--|
c#|---------------------5-5555555558-8-8-8-8-8-101010101010--|
    
   
     Mercenarios,  mal nacidos !A nadie engañáis, ya sois conocidos,
c#|--------------------------------------------------------------------|
g#|--------------------------------------------------------------------|
e |--------------------------1010-7-777777777--------------------------|
b |-44-6-666666666888888888--1010-7-777777777101010101010101010--------|
f#|-44-6-666666666888888888--8-8--5-555555555101010101010101010--------|
c#|-22-4-444444444666666666------------------8-8-8-8-8-8-8-8-8---------|

  
         todos sabemos quien es vuestro dueñooooooooooooooo.
c#|--------------------------------------------------------------------|
g#|--------------------------------------------------------------------|
e |--------------------------1010-7-777777777--------------------------|
b |-44-6-666666666888888888--1010-7-777777777101010101010101010--------|
f#|-44-6-666666666888888888--8-8--5-555555555101010101010101010--------|
c#|-22-4-444444444666666666------------------8-8-8-8-8-8-8-8-8---------|


   Barato les sale usar a sus siervos Para que echen mas leña al fuego,
c#|-------------------------------------------------------|
g#|-------------------------------------------------------|
e |-10-10-107-777777777777555--1010-7--777777777555555----|
b |-10-10-107-777777777777555--1010-7--777777777555555----|
f#|-8--8--8-5-555555555555333--8-8--5--555555555333333----|
c#|-------------------------------------------------------|


    para que quemen en la hogueraa los infieles a su régimen.
c#|-------------------------------------------------------|
g#|-------------------------------------------------------|
e |-10-10-107-777777777777555--1010-7--777777777555555----|
b |-10-10-107-777777777777555--1010-7--777777777555555----|
f#|-8--8--8-5-555555555555333--8-8--5--555555555333333----|
c#|-------------------------------------------------------|


    Quieren cortarnos la lengua   para que nadie nos pueda escuchar,
c#|--------------------------------------------------------------------|
g#|--------------------------------------------------------------------|
e |--------------------------1010-7-777777777--------------------------|
b |-44-6-666666666888888888--1010-7-777777777101010101010101010--------|
f#|-44-6-666666666888888888--8-8--5-555555555101010101010101010--------|
c#|-22-4-444444444666666666------------------8-8-8-8-8-8-8-8-8---------|


    para que solo oiga su mensaje   y nadie pueda dudar.
c#|-------------------------------------------------------------------------|
g#|-------------------------------------------------------------------------|
e |-------------------------------1010-7-777777777--------------------------|
b |-¿¿¿(44)-6-666666666888888888--1010-7-777777777101010101010101010--------|
f#|-¿¿¿(44)-6-666666666888888888--8-8--5-555555555101010101010101010--------|
c#|-¿¿¿(22)-4-444444444666666666------------------8-8-8-8-8-8-8-8-8---------|


         Tijera contra papel! Piedra contra tijera!
c#|-------------------------------------------------------------|
g#|-------------------------------------------------------------|
e |-1010-7-777777--1010-----------------------------------------|
b |-1010-7-777777--1010-7-777777777101010101010101010555555555--|
f#|-8-8--5-555555--8-8--7-777777777101010101010101010555555555--|
c#|---------------------5-5555555558-8-8-8-8-8-8-8-8-333333333--|


        Tijera contra papel!  Piedra contra tijera!
c#|-------------------------------------------------------------|
g#|-------------------------------------------------------------|
e |-1010-7-777777--1010-----------------------------------------|
b |-1010-7-777777--1010-7-777777777101010101010101010555555555--|
f#|-8-8--5-555555--8-8--7-777777777101010101010101010555555555--|
c#|---------------------5-5555555558-8-8-8-8-8-8-8-8-333333333--|

  Barato  Para que se bajen al fuego,
c#|-------------------------------------------------------------|
g#|-------------------------------------------------------------|
e |-1010-7-777777--1010-----------------------------------------|
b |-1010-7-777777--1010-7-777777777101010101010101010555555555--|
f#|-8-8--5-555555--8-8--7-777777777101010101010101010555555555--|
c#|---------------------5-5555555558-8-8-8-8-8-8-8-8-333333333--|


    para que quemen en la hoguera  a los infieles a su régimen.
c#|-------------------------------------------------------------|
g#|-------------------------------------------------------------|
e |-1010-7-777777--1010-----------------------------------------|
b |-1010-7-777777--1010-7-777777777101010101010101010555555555--|
f#|-8-8--5-555555--8-8--7-777777777101010101010101010555555555--|
c#|---------------------5-5555555558-8-8-8-8-8-8-8-8-333333333--|

       Tijera contra papel!   Piedra contra tijera!
c#|-------------------------------------------------------------|
g#|-------------------------------------------------------------|
e |-1010-7-777777--1010-----------------------------------------|
b |-1010-7-777777--1010-7-777777777101010101010101010555555555--|
f#|-8-8--5-555555--8-8--7-777777777101010101010101010555555555--|
c#|---------------------5-5555555558-8-8-8-8-8-8-8-8-333333333--|


     Tijera contra papel!   Piedra contra tijera!
c#|-------------------------------------------------------------|
g#|-------------------------------------------------------------|
e |-1010-7-777777--1010-----------------------------------------|
b |-1010-7-777777--1010-7-777777777101010101010101010555555555--|
f#|-8-8--5-555555--8-8--7-777777777101010101010101010555555555--|
c#|---------------------5-5555555558-8-8-8-8-8-8-8-8-333333333--|

c#|-----------------------------||
g#|-----------------------------||
e |--------1010-----------------||
b |--------1010-1010-77--55-----||
f#|--------8-8--1010-77--55-----||
c#|--5-8-5------8-8--55--33-----||


VENGA AU CACAU¡¡¡¡¡
Suggest correction
Give kudos to tab author, rate the tab!
1 2 3 4 5
comments
print report bad tab
guest
You may want to rate the tab now too:
select rating
Wanna post a correction for this tab? Suggest correction