Oops, an error
Loading. Please wait.

Pauso Bat Bass Tab

72 views 1 this week
no commentswrite comment
1 2 3 4 5
3 more votes to show rating
add to favorites
launch autoscroll
font size
0
reset
guitar tuner
Autoscroll
slow
fast
+/-
esc
set tempo
stop
Help us to improve Ultimate-Guitar.com Take our survey!
×
INTRO - 00.00

Guitarra
-------------
-------------
-6---5---8---
-6---5---8---
-4---3---6---

Bajo
G-------------
D-------------
A----6-5----5-
E-------------

00.15

G------------------------------------
D------------------------------------
A-------------------------------6-5--
E---4444444--3333333--6666666--------

G------------------------------------
D------------------------------------
A---------------------------------5--
E---4444444--3333333?6666666---------


VERSO ? 00.32

G---------------------------------------
D---------------------------------------
A-----3-6-3------5--5-----8---8---8--8--
E---4----------3---3----6---6---6---6---

00.48

G------------------------------------
D------------------------------------
A-------------------------------6-5--
E---4444444--3333333--6666666--------

G------------------------------------
D------------------------------------
A---------------------------------5--
E---4444444--3333333?6666666---------

01.04
G----------------------------------------
D----------------------------------------
A-----3-6-3------5--5-----8---8---8---8--
E---4----------3---3----6---6---6---6----


CHORUS

01.20

G-------------------------------------------------
D-------------------------------------------------
A----------------------3-5-6666666---3-111111111--
E-1111111--3-44444444-----------------------------

G-------------------------------------------------
D-------------------------------------------------
A----------------------3--6666666---3-111111111---
E-1111111----44444444-----------------------------


BASS SOLO

01.36

G-------------------------------------------
D-------------------------------------------
A------3-6-3-----2-5-2-----5-8-5----5-8-5---
E----4---------3---------6--------6---------

G-------------------------------------------
D-------------------------------------------
A------3-6-3-----2-5-2-----5-8-5----8-6-5---
E----4---------3---------6--------6---------

CHORUS

02.00

G-------------------------------------------------
D-------------------------------------------------
A----------------------3-5-6666666---3-111111111--
E-1111111--3-44444444-----------------------------

G-------------------------------------------------
D-------------------------------------------------
A----------------------3--6666666---3-111111111---
E-1111111----44444444-----------------------------

HASTA EL FINAL...
Suggest correction
Give kudos to tab author, rate the tab!
1 2 3 4 5
comments
print report bad tab
guest
You may want to rate the tab now too:
select rating
Wanna post a correction for this tab? Suggest correction