Oops, an error
Loading. Please wait.

Pauso Bat Tab

107 views 3 this week
no commentswrite comment
1 2 3 4 5
3 more votes to show rating
add to favorites
launch autoscroll
font size
0
reset
how to read this tab
guitar tuner
Autoscroll
slow
fast
+/-
esc
set tempo
stop
Help us to improve Ultimate-Guitar.com Take our survey!
×
NOTACION

*= tocar muchas veces esa nota o acorde
PM= palm muted (si va seguido de una línea de puntos hacerlo
hasta donde termine la línea de puntos)

------------------------------------------------------------
------------------------------------------------------------

FORMACION DE ACORDES

G# (466544)
G (355433)
A# (688766)

------------------------------------------------------------
------------------------------------------------------------

AFINACION

Normal (standar)

------------------------------------------------------------
------------------------------------------------------------


INTRO

1)

Guitarra 1
--------------
--------------
--------------
--6---5---8---
--6---5---8---
--4*--3*--6*--

Guitarra 2
------------
------------
--8-7----7--
--8-7----7--
--6-5----5--
------------

2)

-------------------------------
-------------------------------
--------------8-7--------------
--6---5---8---8-7--6---5---8---
--6---5---8---6-5--6---5---8---
--4*--3*--6*-------4*--3*--6*--


VERSO

1)

------------------------------------------------------------
------------------------------------------------------------
------------------------------------------------------------
-------6-6-------6-6-------5-5-------5-5-------8-8-------8-8
-------6-6-------6-6-------5-5-------5-5-------8-8-------8-8
--4-4-------4-4-------3-3-------3-3-------6-6-------6-6-----
  PM........................................................

------------------------------------------------------------
------------------------------------------------------------
------------------------------------------------------------
-------5-5-------5-5---------6-6-------6-6-------5-5-------5
-------5-5-------5-5---------6-6-------6-6-------5-5-------5
--3-3-------3-3---------4-4-------4-4-------3-3-------3-3---
  ..........................................................

---------------------------------------------
---------------------------------------------
---------------------------------------------
--5-------6-6-------6-6-------8-8-------8-8--
--5-------6-6-------6-6-------8-8-------8-8--
-----4-4-------4-4-------6-6-------6-6-------
  .........................................

2)
                 xxxxx
----------------¡-----¡--
----------------¡-----¡--
----------------¡-8-7-¡--
--6---5---8--8--¡-8-7-¡--
--6---5---8--8--¡-6-5-¡--
--4*--3*--6--6*-¡-----¡--
             PM

La segunda vez que toques este riff en vez de tocar lo que
pone en la zona marcada con 'x' toca esto:

---
---
-7-
-7-
-5-
---


CHORUS (Pauso bat...)

---------------------------------------------------
---------------------------------------------------
----------5-7--8---5-3--------5------7--8---5--3---
--3---6---5-7--8---5-3----3---5--6---7--8---5--3---
--3---6---3-5--6*--3-1*---3---3--6---5--6*--3--1*--
--1*--4*------------------1*-----4*----------------


POST-CHORUS

G# G# G# G#   G G G G   xx A# A# A# A# xx A# A# xx A# A#

(Toca los acordes golpeando con la pua hacia arriba y paran-
do el sonido con la mano izquierda)
Suggest correction
Give kudos to tab author, rate the tab!
1 2 3 4 5
comments
print report bad tab
guest
You may want to rate the tab now too:
select rating
Wanna post a correction for this tab? Suggest correction