Oops, an error
Loading. Please wait.

Perra Vida Tab

149 views 3 this week
no commentswrite comment
1 2 3 4 5
3 more votes to show rating
add to favorites
launch autoscroll
font size
0
reset
how to read this tab
guitar tuner
×
Best way to learn
"Perra Vida"
Autoscroll
slow
fast
+/-
esc
set tempo
stop
INTRO

1)

------------------------------------------------------------
------------------------------------------------------------
------------------------------------------------------------
-------4-5--4-4--5-5-5---------------4-5--7-7-----------5-5-
--2-2--2-3--2-2--3-3-3--5-5-5---2-2--2-3--5-5--7-7-7-7--3-3-
--0-0-------------------3-3-3---0-0------------5-5-5-5------

---
---
---
-5-
-3-
---

2)

------------------------------------------------------------
------------------------------------------------------------
------------------------------------------------------------
----------------10-10--9-10---------------------------------
--7--7-7-7-7-7---8--8--7--8--7-9--9-9-9-9-9--10-10--9-5--7--
--5--5-5-5-5-5---------------5-7--7-7-7-7-7---8--8--7-3--5--
     PM.......                    PM.......                 
                                         xxxxxxxxxxxxxxxxx
----------------------------------------¡-----------------¡-
----------------------------------------¡-----------------¡-
----------------------------------------¡-----------------¡-
------------10-10--9-10-----------------¡--5s4--9s7-------¡-
-7-7-7-7-7---8--8--7--8--7-9--9-9-9-9-9-¡--3s2--7s5--10s7-¡-
-5-5-5-5-5---------------5-7--7-7-7-7-7-¡-------------8s5-¡-
 PM.......                    PM.......

La segunda vez que toques el riff en vez de tocar lo que po-
ne en la zona marcada con 'x' toca esto:

--------------
--------------
--------------
--------------
--10-10--5-5--
---8--8--3-3--


VERSO

1) (Siete años que...)

Tocar lo mismo que en Intro 2

2) (No tenía de ná...)
                                    xxxxxxxxxxxxxxxxxx
-----------------------------------¡------------------¡--
-----------------------------------¡------------------¡--
-----------------------------------¡------------------¡--
--------------7s8--8-8-8-8-8-8--5--¡-7-7-7-7----------¡--
--5--5-5-5-5--5s6--6-6-6-6-6-6--3*-¡-5-5-5-5--7-7-7-7-¡--
--3--3-3-3-3-----------------------¡----------5-5-5-5-¡--
     PM.....

La segunda vez que toques el riff en vez de tocar lo que po-
ne en la zona marcada con 'x' pon esto:

--------------------
--------------------
--------------------
--8-8-8-8--7-7-7-7--
--6-6-6-6--5-5-5-5--
--------------------


PRE-CHORUS

-----------------------
-----------------------
-----------------------
----------2-0----------
--3-2-(0)-----(0)-3-0--
-----------------------


CHORUS

1) (Un miércoles encontró...)

-----------------------------------------------------------
-----------------------------------------------------------
-----------------------------------------------------------
--4---5--------------5-5-5-5---4---5---9----------5-5-5-5--
--2*--3*--2---5-5-5--3-3-3-3---2*--3*--7*--5-5-5--3-3-3-3--
----------0*--3-3-3------------------------3-3-3-----------

2) (De qué, de qué,...)

--------------------------------
--------------------------------
--------------------------------
--3-------------------------5---
--1*--4------4------4s5--8--3*--
------2-0-0--2-0-0--2s3--6*-----
      PM..........

3) (Tenía ganas de buscar...)

----------------------------
----------------------------
----------------------------
--4---7-5-4----4---7-5-4-3--
--2*--5-3-2-0--2*--5-3-2-1--
----------------------------

------------------------------------------------------------
------------------------------------------------------------


Perra vida

7 años ke, llevaba en paro este hombre, 7 
años de, girar como un trompo, girar 
girar en el gran torbellino de la miseria 
no sabía cuando esto podía acabar. 

No tenía de na, ni sikiera los recursos 
necesarios pa, pa alimentar a su 
familia. 

Un miércoles encontró un trabajo 
como peón, Luis Marzal no se lo podía 
creer, de ké, ¿de ké? 

Esto no pué ser verdá, ke me haya 
pasao, ké alegría me da. ya era hora 
de que cambie mi suerte. 

Tenía ganas de encontrar trabajo, 
mejor le habría estao seguir sin kasco. 

El jueves Luis Manuel Marzal, Luis el 
del pescao congelao, caía desde la 
novena planta de un edificio en 
construcción, la perra vida y el 
trágico fin de Luis Marzal, 5 hijos, peón 
de albañil Luis Marzal. 

No tenía de na, ni sikiera los recursos 
necesarios pa, pa alimentar a su familia 
¡Pobre Luis Marzal, ya tenía ganas de 
dejar de una puta vez de girar en el 
torbellino de la miseria, con un 
buen 'golpe de suerte' todo se acabó.
Suggest correction
Give kudos to tab author, rate the tab!
1 2 3 4 5
comments
print report bad tab
guest
You may want to rate the tab now too:
select rating
Wanna post a correction for this tab? Suggest correction