Oops, an error
Loading. Please wait.

Por Su Bien Tab

17 views 1 this week
no commentswrite comment
1 2 3 4 5
3 more votes to show rating
add to favorites
launch autoscroll
font size
0
reset
how to read this tab
guitar tuner
×
Best way to learn
"Por Su Bien"
Autoscroll
slow
fast
+/-
esc
set tempo
stop
INTRO

1)

------------------------------------------------------------
------------------------------------------------------------
------------------------------------------------------------
-----------7-7--10---------10-7-5--5-5-5-5--6s5s3-----------
--0-0-0-0--5-5---8--0-0-0---8-5-3--3-3-3-3--4s3s1--5--5-5-5-
--0-0-0-0-----------0-0-0--------------------------5--5-5-5-
  PM.....           PM...          PM.....            PM...

------------------------------------------------------------
------------------------------------------------------------
------------------------------------------------------------
------0---------0-0-3---------3p0h3s6-----------6s5-----6-6-
-5s3--0--0-0-0--0-0-3--0-0-0--3p0h3s6--6-6-6-6--6s5--0--6-6-
-5s3--0--0-0-0--0-0-3--0-0-0--3p0h3s6--6-6-6-6--6s5--0--6-6-
         PM...         PM...           PM.....       PM

--------
--------
--------
----6s5-
-0--6s5-
-0--6s5-
 PM

2)
                                                 xxxxxxx
------------------------------------------------¡-------¡--
------------------------------------------------¡-------¡--
------------------------------------------------¡-------¡--
--0-------5-0--5s6--3--0-0-0-0--5s6--3--0-0-0-0-¡-5s6s3-¡--
--0--2h3--5-0--5s6--3--0-0-0-0--5s6--3--0-0-0-0-¡-5s6s3-¡--
--0-------5-0--5s6--3--0-0-0-0--5s6--3--0-0-0-0-¡-5s6s3-¡--
                       PM.....          PM.....

La segunda vez que toques este riff en vez de tocar lo que
pone en la zona marcada con 'x' toca esto:

---------
---------
---------
-3-4-5-6-
-3-4-5-6-
-3-4-5-6-

3)

------------------------------------------------------------
------------------------------------------------------------
------------------------------------------------------------
---------7s5---------5s4------------------------------------
--0-0-0--5s3--0-0-0--3s2--0-0-0--6s5--3s5--0-0-0--3s5--0-0-0
--0-0-0-------0-0-0-------0-0-0--6s5--3s5--0-0-0--3s5--0-0-0
  PM...       PM...       PM...            PM...       PM...

----------------------
----------------------
----------------------
----------------------
-3s6--0-0-0--3s5--6s5-
-3s6--0-0-0--3s5--6s5-
      PM...


VERSO

1) (Padre, que haces, no me pegues...)

Tocar lo mismo que en Intro 3

2) (Un tirón de pelos...)

------------------------------------------
------------------------------------------
------------------------------------------
--5s7--5s8--5s7--8s7----------------------
--3s5--3s6--3s5--6s5--3-3--3-3--3-3--6s5--
----------------------3-3--3-3--3-3--6s5--


CHORUS

1) (Tienes que entenderlo...)

------------------------------------------------------------
------------------------------------------------------------
------------------------------------------------------------
--7-7-7-7--10-10-10-10--5-5-5-5---------------7-7--10-10-10-
--5-5-5-5---8--8--8--8--3-3-3-3--5-5-5-5--5-5-5-5---8--8--8-
---------------------------------5-5-5-5--5-5---------------

------------------------
------------------------
------------------------
-10--5--6-5-3-----------
--8--3--4-3-1--5--6-5-3-
---------------5--6-5-3-

2) (Todo esto es sólo por mi bien...)

------------------------------------------------------------
------------------------------------------------------------
------------------------------------------------------------
--------------------7s5------------------5-5----------------
--0-0-0-0--3-3-3-3--5s3--5--0-0-0-0--3-3-3-3--5-----------5-
--0-0-0-0--3-3-3-3-------5--0-0-0-0--3-3------5--5-5-5-5--5-
                                                 PM.....
--------------------------------------
--------------------------------------
--------------------------------------
--------------------------------------
-5-----------5-5-----------5-5-5--3-3-
-5--5-5-5-5--5-5--5-5-5-5--5-5-5--3-3-
    PM.....       PM.....

------------------------------------------------------------
------------------------------------------------------------


Por su bien

¡Padre, qué haces! No me pegues
sólo por haber roto ese jarrón
padre, ha sido sin kerer
él no le escucha y le vuelve a meter
un tirón de pelos, le levanta del suelo
¡ una ostia en la cara!
¡ Sólo tengo nueve años! grita el txabal
encogido en un rincón
intenta taparse de los golpes
ke le llueven por todos lados.

Tienes ke entenderlo, sí, ya lo voy cogiendo
el daño que me hacéises por mi bien
todo esto es sólo por mi bien
y entonces, ¿por qué quiero morir?

Siento naúseas de mis padres
me ostian por cualquier cosa
¡no sé que hacer!
Dicen, te lo mereces
así aprenderás
yo sólo he aprendido a odiarles
¡ a odiarles!

El daño que me hacéises es por mi bien
todo esto es sólo por mi bien
no me acostumbro a
ke me peguéis, me me matxakéis y me pisoteeis
ke me anuléis, manipuléis, ya no lo aguanto más.
¡ no lo aguanto!
Suggest correction
Give kudos to tab author, rate the tab!
1 2 3 4 5
comments
print report bad tab
guest
You may want to rate the tab now too:
select rating
Wanna post a correction for this tab? Suggest correction