Oops, an error
Loading. Please wait.

Ratas Tab

version 1
version 1

Whole song

206 views 3 this week
no commentswrite comment
1 2 3 4 5
3 more votes to show rating
add to favorites
launch autoscroll
font size
0
reset
how to read this tab
guitar tuner
Autoscroll
slow
fast
+/-
esc
set tempo
stop
Help us to improve Ultimate-Guitar.com Take our survey!
×
+ Tabulados de made in spain!                   +
+ (                        +
+++++++++++++++++++++++++++++++++++++++++++++++++

Riff principal
                            1.                        2.
e -------------------------|-------------------------|-----------|
B -------------------------|-------------------------|-----------|
G -------------------------|-------------------------|-----------|
D -------------------------|-------------------------|-----------|
A -2--2--5--2--7--2--7--5--|-2--2--5--2--7--2--7--5--|--8--7--5--|
E -0--0--3--0--5--0--5--3--|-0--0--3--0--5--0--5--3--|--6--5--3--|
                            \pm---------------------/

Parte r pida
e -------------------------|
B -------------------------|
G -------------------------|
D -------------------------|
A -------------------8--7--|
E -0--0--0--0--0--0--6--5--|

                          <------------------------------>
Otro riff famoso de S.A.
e -------------------------------------------------------------------------
B -------------------------------------------------------------------------
G ------------7-----------5--7-----------5--7-----------3-3-3-5-5-5-7-7-7--
D ------------7-----------5--7-----------5--7-----------3-3-3-5-5-5-7-7-7--
A ------------5-----------3--5-----------3--5-----------1-1-1-3-3-3-5-5-5--
E -------------------------------------------------------------------------
   (platillos) (platillos)    (platillos)    (platillos)
Suggest correction
Give kudos to tab author, rate the tab!
1 2 3 4 5
comments
print report bad tab
guest
You may want to rate the tab now too:
select rating
Wanna post a correction for this tab? Suggest correction