Oops, an error
Loading. Please wait.

Ratas Tab

version 3
version 3

Whole song

155 views 3 this week
no commentswrite comment
1 2 3 4 5
3 more votes to show rating
add to favorites
launch autoscroll
font size
0
reset
how to read this tab
guitar tuner
×
Best way to learn
"Ratas"
Autoscroll
slow
fast
+/-
esc
set tempo
stop
INTRO

1)
                                             xxxxxxxxx
--------------------------------------------¡---------¡--
--------------------------------------------¡---------¡--
--------------------------------------------¡---------¡--
--0-0-0-------------------------------------¡-----5-3-¡--
--0-0-0------------------------000----------¡-----5-3-¡--
--0-0-0--3p0-0-5s6--0-5s6-0h3--000--3p0-0h5-¡-(0)-5-3-¡--
                    PM.....................

La segunda vez que toques el riff en vez de tocar lo que
pone en la zona marcada con 'x' toca esto:

-------------
-------------
-------------
------5-3-5--
------5-3-5--
--(0)-5-3-5--

2)

------------------------------------------------------------
------------------------------------------------------------
------------------------------------------------------------
--0-0-0---------------------------0-0-0--------------0--5-3-
--0-0-0--3p0--0--6b--0--6s5--0h3--0-0-0--3p0--0--5b--0--5-3-
--0-0-0--3p0--0--6b--0--6s5--0h3--0-0-0--3p0--0--5b--0--5-3-
                                                     PM

3)

------------------------------------------------------------
------------------------------------------------------------
------------------------------------------------------------
--6---------8s?--0-0-0------------0-0-------0---6---------3-
--6--5s6s5--6s?--0-0-0--3p0--3p0--0-0--3p0--0---6--5s6s5--1-
--6--5s6s5-------0-0-0--3p0--3p0--0-0--3p0--0---6--5s6s5----

---------------------------
---------------------------
---------------------------
--5--8s?--0-0-0------------
--3--6s?--0-0-0--3p0--3p0--
----------0-0-0--3p0--3p0--


VERSO

1) (Criaturas alienadas ...)

Tocar lo mismo que en Intro 2

2) (Tu no debes decidir)

Tocar lo mismo que en Intro 3


CHORUS

1) (¡Ratas!)

------------------------------------------------------------
------------------------------------------------------------
------------------------------------------------------------
--3-3-0-------------6-6-3-------------3-3-0-------------3-3-
--3-3-0-------------6-6-3-------------3-3-0-------------3-3-
--3-3-0--0-0-3-3-0--6-6-3--0-0-3-3-0--3-3-0--0-0-3-3-0--3-3-
         PM.......         PM.......         PM.......

---
---
---
-0-
-0-
-0-

Y para entrar en el siguiente riff (Chorus 2) toca esto:

---------
---------
---------
--3-5-6--
--3-5-6--
--3-5-6--

2) (Lobotomía generalizada)

------------------------------------------------------------
------------------------------------------------------------
------------------------------------------------------------
--3-3-0------3-5-6--3-3-0------3-5-6--3-3-0------3-5-6--5-5-
--3-3-0------3-5-6--3-3-0------3-5-6--3-3-0------3-5-6--5-5-
--3-3-0--0*--3-5-6--3-3-0--0*--3-5-6--3-3-0--0*--3-5-6--5-5-
         PM                PM                PM

--------
--------
--------
-3------
-3------
-3--3*--
    PM


FINAL

1)(... de una en una)

-----------------------------------------------------------
-----------------------------------------------------------
-----------------------------------------------------------
--3-3-0-------------6-3-------------5-6-7-------------5-6-7
--3-3-0-------------6-3-------------3-4-5-------------3-4-5
--3-3-0--0-0-3-3-0--6-3--0-0-3-3-0---------0-0-3-3-0-------
         PM.......       PM.......         PM.......

-----------
-----------
-----------
-----------
-----------
-0-0-3-3-0-
 PM.......

2)

-----------------------------------------------------------
-----------------------------------------------------------
-----------------------------------------------------------
-5-6-7--6-5-10--5-6-7--6-5-10---5-6-7-6-5-----------5-6-7--
-3-4-5--4-3-8---3-4-5--4-3-8----3-4-5-4-3--6-5-3-5--3-4-5--
-------------------------------------------6-5-3-5---------
        PM.            PM.

------------------------------------------------------------
------------------------------------------------------------


Ratas

Criaturas alienadas, por los tubos catódicos de sus televisores
consumen la basura programada por las cabezas pensantes
capaces de alterar estados de ánmo y de opinión
disfrazar las cosas, no decir lo que son
para que crean en lo que no creen
para que seas, como quieren que seas
¡tú no debes decidir!

Lobotomía generalizada, todas las piezas encajan muy bien
el cerebro ya ni siente ni piensa, no sabe, no contesta
el hombre y la mujer, deben vivir, consumir, procrear 
sólo con sus leyes y con sus reglas
bienvenido al mundo de las ratas.

Todo debe estar bajo su control
poder, drogas, alimentos y dinero
diversión, medicinas y armamento
nos educan para necesitar políticos profesionales
y nos quedamos sentaos en el umbral de la indiferencia
a cambio nos dan este mundo de ratas.

¡Ratas! Nosotros seremos serpientes
¡ratas! serpientes, serpientes
¡ratas! hay quetragarlas de una en una
¡ratas! de una en una
on egin!!!(buen provecho)
Suggest correction
Give kudos to tab author, rate the tab!
1 2 3 4 5
comments
print report bad tab
guest
You may want to rate the tab now too:
select rating
Wanna post a correction for this tab? Suggest correction