Oops, an error
Loading. Please wait.
16 views 1 this week
no commentswrite comment
1 2 3 4 5
3 more votes to show rating
add to favorites
launch autoscroll
font size
0
reset
how to read this tab
guitar tuner
×
Best way to learn
"Rumore"
Autoscroll
slow
fast
+/-
esc
set tempo
stop
INTRO

1)

--12*--
-------
-------
-------
-------
-------

2) (La, la, ...)

----------
----------
----------
--2---7---
--2---7---
--2*--7*--


VERSO (Rumore, no mi siento...)

Tocar lo mismo que en Intro 2


PRE-CHORUS

------
------
------
--2---
--2---
--2*--
  PM


CHORUS (E ritornare al tempo...)

                                       xxxxxxxxxxxx
--------------------------------------¡------------¡--
--------------------------------------¡------------¡--
--------------------------------------¡------------¡--
--7-7--5-5-5--4-4--2-2-2---5-5--4-4-4-¡-0-0--2-2-2-¡--
--7-7--5-5-5--4-4--2-2-2---5-5--4-4-4-¡-0-0--2-2-2-¡--
--7-7--5-5-5--4-4--2-2-2---5-5--4-4-4-¡-0-0--2-2-2-¡--

La segunda vez que toques este riff en vez de tocar lo que
pone en la zona marcada con 'x' toca esto:

-------------
-------------
-------------
--2-2-2--9---
--2-2-2--9---
--2-2-2--9*--
         PM


POST-CHORUS

1)

------
------
------
------
------
--9*--
  PM

2)
            (x2)
---------------¡-----
---------------¡-----
---------------¡-----
--9-9-9--9-9-9-¡-----
--9-9-9--9-9-9-¡-----
--9-9-9--9-9-9-¡-9*--
                 PM

------------------------------------------------------------
------------------------------------------------------------


Rumore 

Rumore, non mi siento sicura, sicura mai,
questa sera vorrei tornare indietro nel tempo.

E ritornare al tempo che coeri tu,
per abracciarti e non pensarci piu su,
ma ritornare e ritornare perche,
quando ho deciso che facevo da me.

Cuore, baticuore..., mi e sembrato
di sentire rumore, rumore che suela, la paura
io da sola non mi sento si cura, si cura mai
e ti giuro questa sera vorrei
tornare indietro nel tempo.
Suggest correction
Give kudos to tab author, rate the tab!
1 2 3 4 5
comments
print report bad tab
guest
You may want to rate the tab now too:
select rating
Wanna post a correction for this tab? Suggest correction