Oops, an error
Loading. Please wait.

Sentar La Cabeza tab

38 views 1 this week
no commentswrite comment
1 2 3 4 5
3 more votes to show rating
add to favorites
×
Save as Personal and add changes to this tab that will be seen only by you. Learn more ›
×
You can save this tab as Personal to edit and correct it or add notes. All changes will be seen only by you. Learn more »
launch autoscroll
font size
0
reset
how to read this tab
guitar tuner
edit
Autoscroll
slow
fast
+/-
esc
set tempo
stop
INTRO

1)

                          xxxxxxxxxxxxxxxxxxxxxx
-------------------------¡----------------------¡--
-------------------------¡----------------------¡--
-------------------------¡----------------------¡--
-------------------------¡-------7--------------¡--
--0--0--3--0--5--0--6>s3-¡-0--0--5--3--5--6s5s6-¡--
--0--0--3--0--5--0--6>s3-¡-0--0-----3--5--6s5s6-¡--
  PM                       PM

La segunda vez que toques este riff en vez de tocar lo que
pone en la zona marcada con 'x' toca esto:

-------------------------------
-------------------------------
-------------------------------
-------------------------------
--0--0--12--0--10--0--8p7h8p7--
--0--0--12--0--10--0--8p7h8p7--
  PM         


VERSO (Sentar la cabeza y pensar...)

Tocar lo mismo que en Intro


CHORUS (¡Sentar la cabeza!)
                                xxxxxxxx
-------------------------------¡--------¡--
-------------------------------¡--------¡--
-------------------------------¡--------¡--
--------0-5-6--0-5-6--0-5-6--0-¡--------¡--
--0--3-------------------------¡-8s9>s?-¡--
--0--3-------------------------¡-8s9>s?-¡--

La segunda vez que toques este riff en vez de tocar lo que
pone en la zona marcada con 'x' toca esto:

---------------
---------------
---------------
---------------
-------(7)--3--
--(7)-------3--


POST-CHORUS (Nunca me explicaré el porqué...)

                          xxxxx      
-------------------------¡-----¡--
-------------------------¡-----¡--
-------------------------¡-----¡--
-------------------------¡-----¡--
--0--0--2--0--3--0--5--0-¡-5s6-¡--
--0--0--2--0--3--0--5--0-¡-5s6-¡--
  PM                   PM

La segunda vez que toques este riff en vez de tocar lo que
pone en la zona marcada con 'x' toca esto:

----------------------
----------------------
--(7)-----------------
-------(7)------------
------------(7)-------
-----------------(7)--

Y la cuarta vez toca esto:

--------------------------
--------------------------
--------------------------
-----------3--------3-----
--0--3--5-----0--5-----0--
--------------------------

------------------------------------------------------------
------------------------------------------------------------


Sentar la cabeza 

Sentar la cabeza y pensar con el culo,
unidos por las esposas del santo sacramento,
de fidelidad eterna acaban de hacer juramento,
convierten el amor en una condena,
un gran negocio que para muchos vale la pena,
unidos ante un cura, unidos ante un juez,
ni que ellos sabrian con quien te puedes llevar bien.
¡Sentar la cabeza!

Muchos lloran, muchos se lamentan,
¡hay! a partir de ahora nada será como era,
se me acabó lo bueno, se acabaron las juergas,
me toca comportarme y tenerla contenta.
Celebraré una cutre despedida de soltero,
con todos mis amigos y después hasta luego,
tengo que comportarme de manera decente,
tengo que controlar, el que dirá la gente.

Nuestra individualidad, marginan y discriminan
nuestra individualidad, nos sale cara,
nunca me explicaré porque necesitamos un papel.

Yo kiero soñar que te amo sin dinero entre gente y desnudos,
lo que somos tenemos y lo demás nos da igual,
a los demás ni les vemos.
Nunca me explicaré porque necesitamos un papel.

            
            
Suggest correction
Creating personal tab
Creating personal tab
You can edit any tab online and save it as your Personal.

You can edit, replace or remove any tab part or add personal notes – all changes will be seen only by you.

Personal tabs can be accessed anytime from any device, even offline.
Learn more »
Give kudos to tab author, rate the tab!
1 2 3 4 5
comments
print report bad tab
guest
Wanna post a correction for this tab? Suggest correction