Oops, an error
Loading. Please wait.
224 views 1 this week
no commentswrite comment
1 2 3 4 5
3 more votes to show rating
add to favorites
launch autoscroll
font size
0
reset
how to read this tab
guitar tuner
×
Best way to learn
"Shaktale"
Autoscroll
slow
fast
+/-
esc
set tempo
stop
INTRO

1)

Guitarra 1
------0-----------------0---------------------0------0---0--
----0---0--3h5--0-----0---0--3h5p3--0-------0------0---0----
------------------------------------------------------------
--2-----------------2-------------------2-5------7----------
------------------------------------------------------------
------------------------------------------------------------

Guitarra 2
-----------------------
-----------------------
-----------------------
--2--5-5-5-5--7--5--2--
--2--5-5-5-5--7--5--2--
--0--3-3-3-3--5--3--0--
  PM.................

2)

--------------------
--------------------
--------5--------9--
--2--5--5--7--9--9--
--2--5--3--7--9--7--
--0--3-----5--7-----

3)

---------------
---------------
---------------
--9s?----------
--7s?--5-5--7--
-------3-3--5--


VERSO

1) (Puedo ser un optimista...)

------------------------------------------------------------
------------------------------------------------------------
----------9-9-9-9-------------------------------------------
--9-9-9-9-9-9-9-9----------8-8-8-8----------5-5-5-5---------
--7-7-7-7-7-7-7-7--8-8-8-8-8-8-8-8--5-5-5-5-5-5-5-5--7-7-7-7
-------------------6-6-6-6-6-6-6-6--3-3-3-3-3-3-3-3--5-5-5-5
          xxxxxxxx
---------¡--------¡-
---------¡--------¡-
---------¡--------¡-
-7-7-7-7-¡-10-9-7-¡-
-7-7-7-7-¡--8-7-5-¡-
-5-5-5-5-¡--------¡-

La segunda vez que toques el riff en vez de tocar lo que po-
ne en la zona marcada con 'x' toca esto:

----
----
----
-10-
--8-
----

2) ACORDES DURANTE EL SOLO

------------------------------------------------------------
------------------------------------------------------------
----------9-9-9-9---------------------------7-7-7-7---------
--9-9-9-9-9-9-9-9----------8-8-8-8--7-7-7-7-7-7-7-7---------
--7-7-7-7-7-7-7-7--8-8-8-8-8-8-8-8--5-5-5-5-5-5-5-5--6-6-6-6
-------------------6-6-6-6-6-6-6-6-------------------4-4-4-4

----------------
----------------
----------------
-6-6-6-6--7-----
-6-6-6-6--5-7---
-4-4-4-4----5-0-

3) ACORDES DESPUES DEL SOLO

---------------------------------------------
---------------------------------------------
---------------------------------------------
--9--9---------7-----7-------9-----7----7----
--7--7-9--8--8-5--5--5-7-----7--8--5--7-5----
-------7--6--6----3----5-0------6-----5---0--


PRE-CHORUS

Toca esto dos veces
------------------------------------------
------------------------------------------
------------------------------------------
-----------------------------------8------
--5----------5----------5----------6-8-5--
--3-3-3-3-3--3-3-3-3-3--3-3-3-3-3----6-3--
    PM.....    PM.....    PM.....

Luego toca esto dos veces
---------------------
---------------------
---------------------
--------------8------
--5--5-5-5-5--6-8-5--
--3--3-3-3-3----6-3--
     PM.....


CHORUS

1) (Cuando te veo...)

             xxxxxxxx
------------¡--------¡--
------------¡--------¡--
------------¡--------¡--
----------7-¡-4---5--¡--
--5---4---5-¡-2*--3*-¡--
--3*--2*----¡--------¡--

En un momento dado la parte del riff marcada con 'x' cambia
y toca esto:

-------------
-------------
-------------
--5-4-5-4-5--
--3-2-3-2-3--
-------------

Y mientras toca la parte marcada con 'x' la guitarra rítmica
otra guitarra (guitarra 2) a la vez toca esto:

----------
----------
--4---5---
--4*--5*--
----------
----------

2) (Siempre hay alguien...)
                                               xxxxxxxxxxx
----------------------------------------------¡-----------¡-
----------------------------------------------¡-----------¡-
----------------------------------------------¡-----------¡-
--------------------------4-4-----------------¡-3-------3-¡-
--2--2-2--2--2-2--2--2-2--2-2--4--4-4--4--4-4-¡-1--3-3--1-¡-
--0--0-0--0--0-0--0--0-0-------2--2-2--2--2-2-¡----1-1----¡-
     PM.     PM.     PM.          PM.     PM. 

La última vez que toques el riff en vez de tocar lo que po-
ne en la zona marcada con 'x' toca esto:

-----------------
-----------------
-----------------
--3-3------------
--1-1--3-3-3--2--
-------1-1-1--0--

3) (Hasta mi mandíbula desencajar...)

-----------------------------------
-----------------------------------
-----------------------------------
-----------------------------------
-----------4---------5--------5-8--
--0-0-0-0--2--0-0-0--3-0-0-0--3-6-- 

------------------------------------------------------------
------------------------------------------------------------


S.H.A.K.T.A.L.E. 

Puedo ser un optimista, puedo ser un 
optimista pensar ke soy libre y feliz. 
Puedo ser un optimista y pensar ke 
todo es rosa sólo hasta ver tu cara 
askerosa. 

Puedo gozar un buen rato urgándome 
en la nariz, soñar despierto, no mirar 
atrás, puedo gozar un buen rato 
urgándome en la nariz, sólo hasta 
verte marchate de akí. 

Cuando te veo, siempre deseo ke no sea 
verdad, arde mi sangre y de mi mente 
no puedo borrar, tu cara de zerdo, no 
puedo olvidar, a ver si puede ser ke te 
largues de akí, porke si no, no podré 
evitar, porke si no, no podre evitar el 
vomitar en tu puta cara voy a vomitar. 

Siempre hay alguien ke te amargará la 
existencia. 

Puedo cerrarme los ojos (bis) 
imaginar mi muerte fríamente, puedo 
cerrarme los ojos y no acordarme de 
ti, encontrarme solo y sin embargo 
reir. 

Puedo salir zapateando lárgamente sin 
avisar y erutar, no me voy a diskulpar 
puedo hundirme en el fango, 
entre mierda disfrutar, pero tú no te 
me acerques, voy a vomitar, hasta mi 
mandibula desencajar en tu puta cara voy 
a vomitar. 

Cuando te veo, siempre deseo ke no sea 
verdad, arde mi sangre y de mi mente 
no puedo borrar, tu cara de zerdo, no 
puedo olvidar, a ver si puede ser ke te 
largues de akí, porke si no, no podré 
evitar, porke si no, no podre evitar el 
vomitar en tu puta cara voy a vomitar. 

¡En tu puta cara voy a vomitar!! ¡En tu 
puta cara voy a vomitar! ké más da total 
tengo más.
Suggest correction
Give kudos to tab author, rate the tab!
1 2 3 4 5
comments
print report bad tab
guest
You may want to rate the tab now too:
select rating
Wanna post a correction for this tab? Suggest correction