Oops, an error
Loading. Please wait.

Sin Dios Ni Na Tab

61 views 1 this week
no commentswrite comment
1 2 3 4 5
3 more votes to show rating
add to favorites
×
Save as Personal and add changes to this tab that will be seen only by you. Learn more ›
×
You can save this tab as Personal to edit and correct it or add notes. All changes will be seen only by you. Learn more »
save as personal
new!
launch autoscroll
font size
0
reset
how to read this tab
guitar tuner
Autoscroll
slow
fast
+/-
esc
set tempo
stop
INTRO

1)
        (x4)
------------
------------
------------
------------
--2-2--2-2--
--0-0--0-0--
  PM......

2)

------------------------------------------------------------
------------------------------------------------------------
------------------------------------------------------------
-----------10s9-----------9s8---------------------6s5-------
------------8s7-----------7s6-----------8s7-------4s3--5s4--
--0-0-0-0--------0-0-0-0-------0-0-0-0--6s5--0-0-------3s2--
  PM.....        PM.....       PM.....       PM.


VERSO

1) (Ni dios, ni patria, ni ley...)

-------------------------
-------------------------
-------------------------
-------------------------
-------4-----5-----5--8--
--0-0--2--0--3--0--3--6--

2) (Tampoco la religión...)

-------------------------
-------------------------
-------------------------
-------4-----5-----5--8--
--0-0--2--0--3--0--3--6--
-------------------------


PRE-CHORUS
                xxx
---------------¡---¡--
---------------¡---¡--
---------------¡---¡--
---------------¡-4-¡--
----------5--5-¡-2-¡--
--0*--1*--3--3-¡---¡--

La segunda vez que toques este riff en vez de tocar lo que
en la zona marcada con 'x' toca esto:

-------
-------
-------
--5-7--
--3-5--
-------


CHORUS (Mi única patria es...)

                             xxxxxxxxxxxxxxxxxxxxxxxxxxxxxx
----------------------------¡------------------------------
----------------------------¡------------------------------
----------------------------¡------------------------------
----------------------------¡-4----------------------------
--2--2-2--2--2-2--2--2-2--2-¡-2--5--3--3-3--3--3-3--5--5-5-
--0--0-0--0--0-0--0--0-0--0-¡----3--1--1-1--1--1-1--3--3-3-
     PM.     PM.     PM.               PM.     PM.     PM.

xxxxxxxx
--------¡-
--------¡-
--------¡-
------4-¡-
-5-5--2-¡-
-3-3----¡-
 ...
  
La última vez que toques este riff en vez de tocar lo que
pone en la zona marcada con 'x' toca esto:

------------------------------------------
------------------------------------------
------------------------------------------
---------------------------------------7--
--9--5--4--3--3-3--3--3-3--5--5-5-5-5--5--
--7--3--2--1--1-1--1--1-1--3--3-3-3-3-----
  PM.....     PM.     PM.     PM.....

------------------------------------------------------------
------------------------------------------------------------

VERSION DE 'DIREKTO'

------------------------------------------------------------
------------------------------------------------------------


INTRO

1)

------------
------------
------------
------------
--0-0--0-0--
--0-0--0-0--
  PM......

2)

------------------------------------------------------------
------------------------------------------------------------
------------------------------------------------------------
-----------8s7-----------7s6---------------------5s4--------
--0-0-0-0--6s5--0-0-0-0--5s4--0-0-0-0--6s5--0-0--3s2--3s2---
--0-0-0-0-------0-0-0-0-------0-0-0-0--6s5--0-0-------3s2---
  PM.....       PM.....       PM.....       PM.


VERSO

1) (Ni dios, ni patria, ni ley...)

----------------------------------
----------------------------------
----------------------------------
----------------------------------
--0-0--2--0--3--0--3--6-----------
--0-0--2--0--3--0--3--6-----------

2) (Tampoco la religión...)

-------------------------
-------------------------
-------------------------
-------------------------
----------------------4--
--5-5--7--5--8--5--8-----


PRE-CHORUS
             xxxxx
------------¡-----¡--
------------¡-----¡--
------------¡-----¡--
------------¡-----¡--
----------3-¡-3-7-¡--
--0*--1*--3-¡-3-7-¡--

La segunda vez que toques este riff en vez de tocar lo que
pone en la zona marcada con 'x' toca esto:

-----------
-----------
-----------
-----3--5--
--3--1--3--
--3--------


CHORUS (Mi única patria es...)

                             xxxxxxxxxxxxxxxxxxxxxxxxxxxxxxx
----------------------------¡-------------------------------
----------------------------¡-------------------------------
----------------------------¡-------------------------------
----------------------------¡-------------------------------
--0--0-0--0--0-0--0--0-0--0-¡-7--3--1--1-1--1--1-1--3-------
--0--0-0--0--0-0--0--0-0--0-¡-7--3--1--1-1--1--1-1--3--3-3-3
     PM.     PM.     PM.               PM.     PM.     PM...


xxxxxx
------¡-
------¡-
------¡-
------¡-
----7-¡-
-3--7-¡-
 .

La segunda vez que toques este riff en vez de tocar lo que
pone en la zona marcada con 'x' toca esto:

--------------------------------------------
--------------------------------------------
--------------------------------------------
-----------------------------------------5--
--7-7--3--2--1--1-1--1--1-1--3-----------3--
--7-7--3--2--1--1-1--1--1-1--3--3-3-3-3-----
  PM.......     PM.     PM.     PM.....

------------------------------------------------------------
------------------------------------------------------------


Sin dios ni na

Sin dios ni patria ni ley, no serviré a ningún rey
ni lutxaré pa'aumentar, vuestro poder militar.
Tampoco la religión me hará cambiar de opinión
no quiero su bendición, Cristo me importa un cojón.
Y vuestra puta justicia,
no es mas ke una sucia estafa,
ke os mantendrá en el poder, para podernos joder.
Mi única patria es el mundo,
a la mierda las fronteras,
Buda, Alá y Cristo, son cuentos
para unos cuantos ke aceptan
ke les roben lo ke es suyo,
así de buenas a primeras,
y rezando se consuelan....¡ Julays!
Sin dios, ni patria, ni rey, sin dios, ni patria, ni ley
Sin dios, ni patria, ni rey, sin dios, ni patria, ni ley.
Suggest correction
Give kudos to tab author, rate the tab!
1 2 3 4 5
comments
print report bad tab
guest
Wanna post a correction for this tab? Suggest correction