Oops, an error
Loading. Please wait.

Magic Fly Bass Tab

61 views 15 this week
no commentswrite comment
1 2 3 4 5
3 more votes to show rating
add to favorites
launch autoscroll
font size
0
reset
guitar tuner
Autoscroll
slow
fast
+/-
esc
set tempo
stop
Help us to improve Ultimate-Guitar.com Take our survey!
×
Author
Difficulty
novice
[Intro] x1

G|---------------------------------------------------------------------------|
D|---------------------------------------------------------------------------|
A|7-7-7-7-7-7-7-7-7-7-7-7-7-7-7-7-7-7-7-7-7-7-7-7----------------------------|
E|---------------------------------------------------------------------------|


[Verse/chorus]  x4

G|---------------------------------------------------------------------------|
D|7-7-7-7-7-7-7-7-----------------7-7-7-7-7-7-7-7----------------------------|
A|----------------7-7-7-7-7-7-7-7-----------------7-7-7-7-7-7-7-7------------|
E|---------------------------------------------------------------------------|

G|---------------------------------------------------------------------------|
D|---------------------------------------------------------------------------|
A|5-5-5-5-7-7-7-7-5-5-5-5-7-7-7-7-5-5-5-5-5-5-5-5-7-7-7-7-7-7-7-7------------|
E|---------------------------------------------------------------------------|

[Extra bit] x1

G|---------------------------------------------------------------------------|
D|7-7-7-7-7-7-7-7-----------------7-7-7-7-7-7-7-7----------------------------|
A|----------------7-7-7-7-7-7-7-7-----------------7-7-7-7-7-7-7-7------------|
E|---------------------------------------------------------------------------|

[Verse/chorus]  x1

G|---------------------------------------------------------------------------|
D|7-7-7-7-7-7-7-7-----------------7-7-7-7-7-7-7-7----------------------------|
A|----------------7-7-7-7-7-7-7-7-----------------7-7-7-7-7-7-7-7------------|
E|---------------------------------------------------------------------------|

G|---------------------------------------------------------------------------|
D|---------------------------------------------------------------------------|
A|5-5-5-5-7-7-7-7-5-5-5-5-7-7-7-7-5-5-5-5-5-5-5-5-7-7-7-7-7-7-7-7------------|
E|---------------------------------------------------------------------------|

[Extra bit] x1

G|---------------------------------------------------------------------------|
D|7-7-7-7-7-7-7-7-----------------7-7-7-7-7-7-7-7----------------------------|
A|----------------7-7-7-7-7-7-7-7-----------------7-7-7-7-7-7-7-7------------|
E|---------------------------------------------------------------------------|

[Verse]  Till fade out

G|---------------------------------------------------------------------------|
D|7-7-7-7-7-7-7-7-----------------7-7-7-7-7-7-7-7----------------------------|
A|----------------7-7-7-7-7-7-7-7-----------------7-7-7-7-7-7-7-7------------|
E|---------------------------------------------------------------------------|

Nice and easy...
Suggest correction
Give kudos to tab author, rate the tab!
1 2 3 4 5
comments
print report bad tab
guest
You may want to rate the tab now too:
select rating
Wanna post a correction for this tab? Suggest correction