Oops, an error
Loading. Please wait.

Carry On Acoustic tab

76 views 1 this week
no commentswrite comment
1 2 3 4 5
3 more votes to show rating
add to favorites
×
Save as Personal and add changes to this tab that will be seen only by you. Learn more ›
×
You can save this tab as Personal to edit and correct it or add notes. All changes will be seen only by you. Learn more »
launch autoscroll
font size
0
reset
how to read this tab
guitar tuner
edit
Autoscroll
slow
fast
+/-
esc
set tempo
stop
spacehog


song: carry on (acoustic)
https://www.youtube.com/watch?v=eSiGv9PDtZo



The Chinese Album 



tabbed by Rudy Guzman


email: guzman_84@hotmail.com

intro
e------------1-0------0------1-0-----------------------1--------3---|
B-1----1-----0---0--1--------0---0--------1-1---1------1-1------3-3-|
G-0-------0--0------2----2---2------------2-0-0---0--2-2-2-2----0-0-| 
D-2--2-------2------2------2-2------0-----3-2--------3-3-3-3----0-0-|
A-3-----------------0--------0---------3--3-3--------3--------------|
E----------------------------------------------------1--------3-----|

verse
e------------1-0------0------1-0-----------------------1--------3---|
B-1----1---------0--1------------0--------1-1---1------1-1------3-3-|
G-0-------0---------2----2----------------2-0-0---0--2-2-2-2----0-0-| 
D-2--2--------------2------2--------0-----3-2--------3-3-3-3----0-0-|
A-3-----------------0------------------3--3-3--------3--------------|
E----------------------------------------------------1--------3-----|

 you´re not the only one..
e:-------5-5------5-5----------|------------------------------3-3-|
B:-6--6--6-6--6-6-6-6--1-1-1-1-|-6--6-6-6-6-6-6-6-------------3-3-|
G:-7--7--7-5--5-5-5-5--0-0-2-0-|-7--7-7-7-7-7-7-7--2-2-2-2----0-0-|
D:-7--7--7-7--7-7-7-7--2-2-3-2-|-7--7-7-7-7-7-7-7--3-3-3-3----0-0-|
A:-5-----5-5--5-5-5-5--3-3-3-3-|-5--5-5-5-5-5-5-5--3-3-3-3--------|
E:-----------------------------|-------------------1-1-1-1--3-----|

solo
e:-------------------------------------------------------2-2----3--3-|
B:-2-2-2-2-2--2-3-5--3-3-2-2--2-2-2-3--2-2-2-2-2-2-2-0---2-2----3--3-|
G:-2-2-2-2-2--2-2-2--2-2-2-2--4-4-2-2--2-2-2-2-2-2-2-0-2-2-2-2--0--0-|
D:-2-2-2-2-2--2-2-2--2-2-2-2--2-2-2-2--2-2-2-2-2-2-2-0-3-3-3-3--0--0-|
A:-0----------0-0-0--0-0-0-0--0-0-0-0--0-0-0-0-0-0-0-0-3-3-3-3--0--0-|
E:-----------------------------------------------------1-1-1-1--3--3-|

ending
e------------1-0------0------1-0-----------------------1--------3------------|
B-1----1---------0--1--------0---0--------1-1---1------1-1------3-3--------1-|
G-0-------0---------2----2---2------------2-0-0---0--2-2-2-2----0-0--------0-| 
D-2--2--------------2------2-2------0-----3-2--------3-3-3-3----0-0--------2-|
A-3-----------------0--------0---------3--3-3--------3---------------------3-|
E----------------------------------------------------1--------3--------------|




hillo son mex

21/10/02


(Royston Langdon)

I know you know I've been damaged, savaged
You know I know that it's sordid, horrid
But you're not the only one I love
You think you're someone sent from up above
Well, I'd kiss your hands, your feet, your hair

Well, if I'm a man, then I'm your fan
You're the best thing I'm ever going to have
So take my hand and carry on and on and on

Ain't no mistaking, this is taking and raping
I'm sick and tired from dreams awaking, I'm faking
But you're not the only one I love
You think you're someone sent from up above
I kissed your hands, your feet, your hair

Well, if I'm a man, I'm your fan
You're the best thing I'm ever going to have
So take my hand and carry on and on and on

            
            
Suggest correction
Creating personal tab
Creating personal tab
You can edit any tab online and save it as your Personal.

You can edit, replace or remove any tab part or add personal notes – all changes will be seen only by you.

Personal tabs can be accessed anytime from any device, even offline.
Learn more »
Give kudos to tab author, rate the tab!
1 2 3 4 5
comments
print report bad tab
guest
You may want to rate the tab now too:
select rating
Wanna post a correction for this tab? Suggest correction