Oops, an error
Loading. Please wait.

Babys Come Back tab

by Span
1,227 views 1 this week
3 commentsread comments
1 2 3 4 5
x 3
add to favorites
×
Save as Personal and add changes to this tab that will be seen only by you. Learn more ›
×
You can save this tab as Personal to edit and correct it or add notes. All changes will be seen only by you. Learn more »
launch autoscroll
font size
0
reset
how to read this tab
guitar tuner
edit
Autoscroll
slow
fast
+/-
esc
set tempo
stop
Author
Difficulty
Tabbers playing skills
intermediate
intermediate ++
This song is a neck crasher (if you whant to listen to it, you can find it on You Tube), 
it doesn't sound cool when you play it just on the guitar.
Drums and the creshendo bas made this song so cool.
I hope I got it right, enjoy it!


|----------------------------------------------------|
|----------------------------------------------------|
|-6-6-6-6-6-6-6-6-6-6-6-6-4-4-4-4-4-3-3-3-3-3-3-3----|
|-6-6-6-6-6-6-6-6-6-6-6-6-4-4-4-4-4-3-3-3-3-3-3-3----| X3
|-4-4-4-4-4-4-4-4-4-4-4-4-2-2-2-2-2-1-1-1-1-1-1-1----|
|----------------------------------------------------|

|----------------|
|----------------|
|-6-6--6--4-4--3-|
|-6-6--6--4-4--3-|X2
|-4-4--4--2-2--1-|
|----------------|

|-------------------------------------------------------------------|
|-------------------------------------------------------------------|
|--------------------------------------/9-9-9-9-9/11-11-11-9h11p9---|
|-/11-11-11-11-11-11-11-11-11-11-11-11------------------------------|
|-------------------------------------------------------------------|
|-------------------------------------------------------------------|
 slightly p.m____________________________________________________

|---------------------------------------------------------------------------------|
|---------------------------------------{12-12-12-12-12-11-11-11-11-11-11-11-11}--|
|---------------------------------------------------------------------------------|
|-/11-11-11-11-11-11-11-11-11-11-11-11--{9--9--9--9--9--8--8--8--8--8--8--8--8-}--|
|---------------------------------------------------------------------------------|
|---------------------------------------------------------------------------------|
 _____________________________________   release p.m

                                         i think it one of these two progressions.
                                           please email me if you work it out.

           6x
|----------||--------------|
|---------o||--------------|
|-6-6-6-6--||-4-4-4-4-4----|
|-6-6-6-6--||-4-4-4-4-4----|
|-4-4-4-4-o||-2-2-2-2-2----|
|----------||--------------|

|----------------------------------------------------|
|----------------------------------------------------|
|-6-6-6-6-6-6-6-6-6-6-6-6-4-4-4-4-4-3-3-3-3-3-3-3----|
|-6-6-6-6-6-6-6-6-6-6-6-6-4-4-4-4-4-3-3-3-3-3-3-3----| X5  (3rd one is muffled)
|-4-4-4-4-4-4-4-4-4-4-4-4-2-2-2-2-2-1-1-1-1-1-1-1----|
|----------------------------------------------------|

|---------------------------------------|
|---------------------------------------|
|-6-6--6----4-4-4-4-4-4--3-3-3-3-3-3----|
|-6-6--6----4-4-4-4-4-4--3-3-3-3-3-3----|
|-4-4--4----2-2-2-2-2-2--1-1-1-1-1-1----|
|---------------------------------------|

|-------------------------------------------------------------------|
|-------------------------------------------------------------------|
|--------------------------------------/9-9-9-9-9/11-11-11-9h11p9---|
|-/11-11-11-11-11-11-11-11-11-11-11-11------------------------------|
|-------------------------------------------------------------------|
|-------------------------------------------------------------------|
 slightly p.m____________________________________________________

|---------------------------------------------------------------------------------|
|---------------------------------------{12-12-12-12-12-11-11-11-11-11-11-11-11}--|
|---------------------------------------------------------------------------------|
|-/11-11-11-11-11-11-11-11-11-11-11-11--{9--9--9--9--9--8--8--8--8--8--8--8--8-}--|
|---------------------------------------------------------------------------------|
|---------------------------------------------------------------------------------|
 _____________________________________   release p.m

                                         i think it one of these two progressions.
                                           please email me if you work it out.
       6x          4X
|----------||----------||
|---------o||---------o||
|-6-6-6-6--||-4-4-4-4--||
|-6-6-6-6--||-4-4-4-4--||
|-4-4-4-4-o||-2-2-2-2-o||
|----------||----------||

|----------------------------------------------------|
|----------------------------------------------------|
|-6-6-6-6-6-6-6-6-6-6-6-6-4-4-4-4-4-3-3-3-3-3-3-3----|
|-6-6-6-6-6-6-6-6-6-6-6-6-4-4-4-4-4-3-3-3-3-3-3-3----| X4  (3rd one is muffled)
|-4-4-4-4-4-4-4-4-4-4-4-4-2-2-2-2-2-1-1-1-1-1-1-1----|
|----------------------------------------------------|

|--------------------------------------------------------|
|--------------12----------------------------------------|
|-----13-13-15----15-13-15p13-15b16-15b16-15b16----------|
|-/15-------------------------------------------15b17r15-|
|--------------------------------------------------------|
|--------------------------------------------------------|

|-------------------------------------------------------------|
|---------------------12--------------------------------------|
|-----13-13-13-13-15----15-13-15p13-13-13-15-15-16-16-15-15---|
|-/15---------------------------------------------------------|
|-------------------------------------------------------------|
|-------------------------------------------------------------|

|-------------------------------------------------------------|*bend up, release and 

|-------------------------------------12-------------------|over and over.
|-13-13-15-15-16-16-15-15----13-13-15----15-13-15-15^---15*|^bend up then 

|--------------------------/15-----------------------------|you have to slide up
|----------------------------------------------------------|to reach the
|----------------------------------------------------------|very high note.

                                                  X8 (last play one '775' in time with each'back')
|--------------------------------------------------||------------|
|-------------------------------------------------o||------------|
|-7-7-7-7-7-7-7-7-7-7-7-7-5-5-5-5-5-4-4-4-4-4-4-4--||-7--0-------|
|-7-7-7-7-7-7-7-7-7-7-7-7-5-5-5-5-5-4-4-4-4-4-4-4--||-7--0-------|
|-5-5-5-5-5-5-5-5-5-5-5-5-3-3-3-3-3-2-2-2-2-2-2-2-o||-5--0-------|
|--------------------------------------------------||------------|
Suggest correction
Creating personal tab
Creating personal tab
You can edit any tab online and save it as your Personal.

You can edit, replace or remove any tab part or add personal notes – all changes will be seen only by you.

Personal tabs can be accessed anytime from any device, even offline.
Learn more »
Give kudos to tab author, rate the tab!
1 2 3 4 5
comments
print report bad tab
3 comments total.
0 reply
brian_s 1,309 Oct 04, 2007 10:29 AM

Daj popravi onaj zadnji dio solaže.

0 reply
LadyAdy 10 Jul 03, 2008 12:52 PM

First line isn't right. It's this:


|----------------------------------------------------|
|----------------------------------------------------|
|-6-6-6-6-6-6-6-6-6-6-6-6-4-4-4-4-4-3-3-3-3-3-3-3----|
|-6-6-6-6-6-6-6-6-6-6-6-6-4-4-4-4-4-4-4-4-4-4-4-4----|
|-4-4-4-4-4-4-4-4-4-4-4-4-2-2-2-2-2-4-4-4-4-4-4-4----|
|----------------------------------------------------|

0 reply
LadyAdy 10 Jul 03, 2008 12:52 PM

(x3)

guest
You may want to rate the tab now too:
select rating
Wanna post a correction for this tab? Suggest correction