Oops, an error
Loading. Please wait.

Ill Fly For You Bass Tab

version 1
version 1

Whole song

Interactive

851 views 1 this week
no commentswrite comment
1 2 3 4 5
2 more votes to show rating
add to favorites
launch autoscroll
font size
0
reset
guitar tuner
Autoscroll
slow
fast
+/-
esc
set tempo
stop
Help us to improve Ultimate-Guitar.com Take our survey!
×
Author
Artist: Spandau Ballet
Song: I'll Fly for You
- this is the basis of the song - please add any extra fills if you know them

to see it played with lots of extras, visit:
http://www.youtube.com/watch?v=ZwIwLbkUHZU


Intro / Verse
G:---------------|----------------|
D:---------6---8-|----------------|
A:-----6-8---8---|------6-8-6-----|
E:-6-9-----------|--6-9-------9-8-|

(Woh-oh-oh-oh, woh-oh-oh-oh)
G:---------|----------|---------|-----------|
D:---------|-------4--|---------|-------6---|
A:-----4---|----------|-----6---|-----------|
E:-2-2---2-|-2-2-22-2-|-4-4---4-|-4-4-44-4--|


Chorus
G:--------|---------|--------|--------|
D:--------|---------|--------|---41---|
A:--------|---------|-4-4--4-|-----42-|
E:-2-2--2-|4--2-4-2-|--------|-2------|

G:--------|---------|---------|----------|
D:--------|---------|-----6-8-|----------|
A:--------|---------|---68----|---686----|
E:-2-2--2-|4--------|6-9------|6-9---9-8-|

G:--------|---------|--------|--------|--------|--|
D:--------|---------|--------|---41---|--------|--|
A:--------|---------|-4-4--4-|-----42-|--------|--|
E:-2-2--2-|4--2-4-2-|--------|-2------|-2-2--2-|4-|


Bridge
G:--------|-------|--------|------|--------|----------|-----|
D:--------|-------|--------|------|--------|----------|-----|
A:-6--6-6-|-------|-6--6-6-|------|-6--6-6-|------2---|-----|
E:--------|-2-2-4-|--------|-2--4-|--------|-2--4---2-|-2-4-|

Outro
G:----|------|----|------|----|------|-----|
D:----|---6\-|----|---6\-|----|---6\-|-----|
A:----|------|----|------|----|------|-1---|
E:-2--|-4----|-2--|-4----|-2--|-4----|-----|
Suggest correction
Give kudos to tab author, rate the tab!
1 2 3 4 5
comments
print report bad tab
guest
You may want to rate the tab now too:
select rating
Wanna post a correction for this tab? Suggest correction