Oops, an error
Loading. Please wait.
28 views 1 this week
2 commentsread comments
1 2 3 4 5
2 more votes to show rating
add to favorites
launch autoscroll
font size
0
reset
how to read this tab
guitar tuner
Autoscroll
slow
fast
+/-
esc
set tempo
stop
Help us to improve Ultimate-Guitar.com Take our survey!
×
(0:00)

e|-------------------------------------|
b|----8--------8--------8-----------5--|
G|-------9--7-----9--7-----9--5--9-----|
D|-5-----------------------------------|
A|-------------------------------------|
E|-------------------------------------|

(0:11)

e|------------------|
b|------------------|
G|-----5-5-5-7-9----|
D|-(7)-----------7--|
A|------------------|
E|------------------|

synth ^^^ (Play note in the bracket just once)

(0:36)

e|-----------------|
b|-8---8---5---5---|
G|-----7---7---5---|
D|-5---7---5---7---|
A|-----------------|
E|-----------------|

(1:17)

e|-------------------------------------------------------------------------------------------------|
b|-8--8-x-x-8--8-x-x-8--8-x-8--8-x-x-8--8-x-x-8--8-8--8-x-x-8--8-x-x-8--8-x-8--8-x-x-8--8-x-x-8--8-|
G|-------------------------------------------------------------------------------------------------|
D|-5--5-x-x-5--5-x-x-5--5-x-5--5-x-x-5--5-x-x-5--5-5--5-x-x-5--5-x-x-5--5-x-5--5-x-x-5--5-x-x-5--5-|
A|-------------------------------------------------7--7-x-x-7--7-x-x-7--7-x-7--7-x-x-7--7-x-x-7--7-|
E|-------------------------------------------------------------------------------------------------|

e|--------------------------------------------------------------------------------------|
b|-8--8-x-x-8--8-x-x-8--8-x-8--8-x-x-8--8-x-x-8--8-8--8-x-x-8--8-x-x-8--8-x-------------|
G|--------------------------------------------------------------------------------------|
D|-5--5-x-x-5--5-x-x-5--5-x-5--5-x-x-5--5-x-x-5--5-5--5-x-x-5--5-x-x-5--5-x-------------|
A|-------------------------------------------------7--7-x-x-7--7-x-x-7--7-x-7--6--7--9--|
E|--------------------------------------------------------------------------------------|

Don't think there's even guitar on this bit, but It fits anyway

(1:34)

e|-----------------|
b|-8---8---5---5---|
G|-----7---7---5---|
D|-5---7---5---7---|
A|-----------------|
E|-----------------|

But this time strum ^^^

(1:50)

G|---------------------------------2------4-5---------|
D|-3--2---2---2------------------3---3-2--------------|
A|------2---2----(2)--5-----3-5---------------2-----3-|
E|-----------------------5-----------------------2----|

Bass. () = ghost note. There are a few variations based around this riff.

(2:07)

e|-------------------|
b|-------------------|
G|-------12----------|
D|-10-12-----12--10--|
A|-------------------|
E|-------------------|

Just bass again, then...

(2:39)

e|-----------------|
b|-8---8---5---5---|
G|-----7---7---5---|
D|-5---7---5---7---|
A|-----------------|
E|-----------------|

strum ^^^

(3:29)

e|------------------|
b|------------------|
G|-----5-5-5-7-9----|
D|-(7)-----------7--|
A|------------------|
E|------------------|

reintroduce synth riff ^^^

(3:42)

e|--------------------|
b|-8---8---5-5-5-5--5-|
G|-----7---7-7-7-7--5-|
D|-5---7---5-5-5-5--5-|
A|--------------------|
E|--------------------|

final guitar riff

(3:34)

e|-----------|
b|-----------|
G|-7-7-7-7-5-|
D|-----------|
A|-----------|
E|-----------|

Final synth riff.





Suggest correction
Give kudos to tab author, rate the tab!
1 2 3 4 5
comments
print report bad tab
2 comments total.
0 reply
yellowshirtguy 540 Sep 24, 2016 03:32 PM

Love this one! I think the intro is played with a different fingering based on the way the notes are ringing out in the recording, but these is a great tab!

0 reply
blackxfuture 5,554 Oct 23, 2016 08:46 PM

Cheers man, feel free to make any suggestions on correcting it!

guest
You may want to rate the tab now too:
select rating
Wanna post a correction for this tab? Suggest correction