Oops, an error
Loading. Please wait.

Homecoming Queen Tab

11,073 views 12 this week
no commentswrite comment
1 2 3 4 5
x 7
add to favorites
launch autoscroll
font size
0
reset
how to read this tab
guitar tuner
Autoscroll
slow
fast
+/-
esc
set tempo
stop
Help us to improve Ultimate-Guitar.com Take our survey!
×
Author
Difficulty
novice
-------------------------------------------------------------------------------
                             Homecoming Queen - Sparklehorse
-------------------------------------------------------------------------------
Tabbed by: Bumcivilian
Email:
Tuning: Standard

This is a way of playing the song on one guitar,
so it does not have all of the lead bits over it, 
but has most of the melody played by the lead anyway, 
and you can do that more by picking around the chords.

Intro:

           F#m       Dbm       Bm        Gm
e|-------|-----------4---4---------------------|
B|-------|--2--------5---5-----3---2-----2-----|
G|-2--4--|--2---2----6---6-----4-4-------2-----|
D|-------|--4-4------6-6-------4---------4-----|
A|-4--5--|--4--------4---------2---------4-----|
E|-------|--2----------------------------2-----|

           F#m       Dbm       Bm        
e|-------|-----------4---------2----------2-0---|
B|-------|--2--------5---------3----------------|
G|-2--4--|--2---2----6---6-----4-----4----------|
D|-------|--4-4------6-6-------4---4------------|
A|-4--5--|--4--------4---------2-2--------------|
E|-------|--2-----------------------------------|


    F#m      Dbm      D         E
e|-----------4-----------5------0-----|
B|--2--------5--------7-----7---0-----|
G|--2---2----6---6----7---------1---1-|
D|--4-4------6-6----6-7---------2-2---|
A|--4--------4--------5---------2-----|
E|--2---------------------------0-----|


   Dm        A        E         Bm
e|--------------------------------------|
B|--6---------------------------3--3----|
G|--7---7------6------1----1----4----4--|
D|--7-7------7---7----2--2------4------4|
A|--5--------7--------2---------2-------|
E|-----------5--------0-----------------|

Verse:

           F#m       Dbm       Bm        F#m
e|-------|-----------4-------------------------|
B|-------|--2--------5---------3---2-----2-----|
G|-2--4--|--2---2----6---6-----4-4-------2-----|
D|-------|--4-4------6-6-------4---------4-----|
A|-4--5--|--4--------4---------2---------4-----|
E|-------|--2----------------------------2-----|
        A   horse, a horse, my kingdom for a horse

           F#m       Dbm       Bm        
e|-------|-----------4---------2----------2-0---|
B|-------|--2--------5---------3----------------|
G|-2--4--|--2---2----6---6-----4-----4----------|
D|-------|--4-4------6-6-------4---4------------|
A|-4--5--|--4--------4---------2-2--------------|
E|-------|--2-----------------------------------|
         Rattling on magnetic fields

    F#m      Dbm      D         E
e|-----------4-----------5------0-----|
B|--2--------5--------7-----7---0-----|
G|--2---2----6---6----7---------1---1-|
D|--4-4------6-6----6-7---------2-2---|
A|--4--------4--------5---------2-----|
E|--2---------------------------0-----|
Yes I did use up the last box of sparklers

   Dm        A        E         Bm
e|--------------------------------------|
B|--6---------------------------3--3----|
G|--7---7------6------1----1----4----4--|
D|--7-7------7---7----2--2------4------4|
A|--5--------7--------2---------2-------|
E|-----------5--------0-----------------|
Before they went bad, got wet or decayed.

Chorus:
           Dbm       D        F#m       F#m
e|------|------------5--------------------------|
B|------|---5--------7---------2---------2------|
G|-4-5--|---6--6-----7--7------2-2-------2-2----|
D|------|---6----6---7----7----4---------4---4--|
A|-2-3--|---4--------5---------4---4-----4------|
E|------|----------------------2---------2------|
          Home  -   coming    Queen

     F#m       E        D
e|-------------0------------|
B|----2--------0--------7---|
G|----2--------1-1------7---|
D|----4-4------2---2----7---|
A|----4---4----2--------5---|
E|----2--------0------------|
    Home  -  coming   Queen

Instrumental (same as intro)

Verse: (same as first verse)

Teeth what were sharp
Is ground down and dumb
My crooked spine becoming more brittle
What once grew straight
And tall t’ward the sun
Is absorbing back down
To dirt like a sponge

Chorus (same as first chorus x2)
End.

Thanks, enjoy.
Suggest correction
comments
print report bad tab
guest
You may want to rate the tab now too:
select rating
Wanna post a correction for this tab? Suggest correction