Oops, an error
Loading. Please wait.

Jaykub Tab

1,819 views 3 this week
no commentswrite comment
1 2 3 4 5
please rate
add to favorites
launch autoscroll
font size
0
reset
how to read this tab
guitar tuner
Autoscroll
slow
fast
+/-
esc
set tempo
stop
Help us to improve Ultimate-Guitar.com Take our survey!
×
Contributor
Jaykub (feat. Jason Lytle) - Sparklehorse


Tabbed by Alex Lamberton


Verse Chords:

A, F#m, A, F#m


Chorus Chords:

E, D, A
E, D, A, Bm, C#m, D


Verse A Chord pt:

-0-0-0-0--0-0-0-0--0-0-0-0--0-0-0-0-|
-2-2-2-2--2-2-2-2--2-2-2-2--2-2-2-2-|
-2-2-2-2--2-2-2-2--2-2-2-2--2-2-2-2-|
-2-2-2-2--2-2-2-2--2-2-2-2--2-2-2-2-|
-0-0-0-0--4-4-4-4--0-0-0-0--4-4-4-4-|
------------------------------------|


Verse F#m pt:

----------2---|
-2------2---2-|
---2---2------|
-----4--------|
--------------|
--------------|


Lead Chorus 'A' pt:

-----------------------------------------------|
-2-2-2-2--------3p2-3---2-2-2--------3p2-------|
-2-2-2-2------2---------2-2-2------2-----2-----|
-2-2-2-2--2h4-----------2-2-2--2h4-------------|
-0-0-0-0--------------0-0-0-0------------------|
-----------------------------------------------|


Guitar Break 1/3:

------------------------------------|
------------------------------------|
-9b11r9-9/7-7-6/0-------------------|
------------------------------------|
------------------------------------|
------------------------------------|

Guitar Break 2:

---------------------------------------------------|
-----------------------5-7-5h7p5-------------------|
-9b11r9-9/7-7-6--7-6-7-----------7-6-4h6p4---4-----|
-------------------------------------------7---7/0-|
---------------------------------------------------|
---------------------------------------------------|
comments
We did not receive enough feedback on this tab! Please rate:
print report bad tab
1 2 3 4 5
I want to post or [tab]
guest
You may want to rate the tab now too:
select rating
Please do not post tabs as comments. Select "correction" instead!