Oops, an error
Loading. Please wait.

Piano Fire chords

version 2
version 2

Whole song

Interactive

1,828 views 18 this week
no commentswrite comment
1 2 3 4 5
x 3
add to favorites
×
Save as Personal and add changes to this tab that will be seen only by you. Learn more ›
×
You can save this tab as Personal to edit and correct it or add notes. All changes will be seen only by you. Learn more »
launch autoscroll
font size
0
reset
transpose
0
reset
simplify chords
display chords
guitar tuner
edit
Autoscroll
slow
fast
+/-
esc
set tempo
stop
Strumming
There is no strumming pattern for this song yet. and get +5 IQ
Tuning: Drop D (DADGBe)  
Capo 2nd fret


[Intro/Verse Chords]
Strummed very hard. Hit the low E string with your thumb.

         Em        D       Gsus2       C       Cmaj7     
e|-------0---------2---------3---------3---------3---------|
B|-------0---------3---------3---------1---------0---------|
G|-------0---------2---------2---------0---------0---------|
D|-------2---------0---------0---------2---------2---------|
A|-------2---------0---------0---------3---------3---------|
D|-------2---------2---------2---------2---------2---------|


[Intro]

(Each chords strummed 6 times, except for D which is 
strummed 5 times with Gsus2 right after strummed once
as a replacement, while still retaining the 
rhythm across it)

Em  D  Gsus2  C  Cmaj7  x2


[Verse]
 
Em      D      Gsus2 C                         Cmaj7
I got sunburnt waiting for the jets to land
Em            D                   Gsus2   C  Cmaj7     
Circus people with hairy little hands
Em       D Gsus2 C                 Cmaj7
Come on boys strike up the army band
Em             D                  Gsus2 C  Cmaj7
I got sunburnt waiting for the jets


[Chorus]

How'd It   Feel---                         How'd It Feel---
e|--3--3--------------------------------------------------------------------x----|
B|--0--0--------------------------------------------------------------------x----|
G|--0--0-------------------5-5-5-5-5-5-5-5-----------------5-5-5-5-5-5-5-5--x----|
D|--2--2---4-4-4-4-4-4-4-4-5-5-5-5-5-5-5-5-4-4-4-4-4-4-4-4-5-5-5-5-5-5-5-5--x----|
A|--3--3---2-2-2-2-2-2-2-2-3-3-3-3-3-3-3-3-2-2-2-2-2-2-2-2-3-3-3-3-3-3-3-3--x----|
D|--2--2--------------------------------------------------------------------x----|


    I  can't seem    to see  through solid marble eyes
e|-----------------------------------------------------------------------------|
B|-----------------------------------------------------------------------------|
G|------------------------------------0/5-5-5-5-5-5-5-5-5-5-5-5-5-5-5-5--------|
D|---5--5-5--5--5-5--2--2-2--0--0-0---0/5-5-5-5-5-5-5-5-5-5-5-5-5-5-5-5--------|
A|---5--5-5--5--5-5--2--2-2--0--0-0---0/3-3-3-3-3-3-3-3-3-3-3-3-3-3-3-3--------|
D|---5--5-5--4--4-4--2--2-2--0--0-0--------------------------------------------|


[Post Chorus]

 C   C
 Em  D  Gsus2 C Cmaj7


[Verse 2]

Em      D        Gsus2   C              Cmaj7    
Fiery pianos wash up on a foggy coast
Em           D                           Gsus2 C  Cmaj7
Squeaky old organs have given up the ghost
Em        D Gsus2   C                    Cmaj7
Fire them up and kill the piano birds
Em                  D                          Gsus2 C  Cmaj7
There's creaky old organs burning on the coast


[Chorus]

How'd It   Feel---                         How'd It Feel---
e|--3--3--------------------------------------------------------------------x----|
B|--0--0--------------------------------------------------------------------x----|
G|--0--0-------------------5-5-5-5-5-5-5-5-----------------5-5-5-5-5-5-5-5--x----|
D|--2--2---4-4-4-4-4-4-4-4-5-5-5-5-5-5-5-5-4-4-4-4-4-4-4-4-5-5-5-5-5-5-5-5--x----|
A|--3--3---2-2-2-2-2-2-2-2-3-3-3-3-3-3-3-3-2-2-2-2-2-2-2-2-3-3-3-3-3-3-3-3--x----|
D|--2--2--------------------------------------------------------------------x----|
 

 1. I  can't seem    to breath  with a rusted metal heart
 2. I  can't seem    to see  through solid marble eyes
e|-----------------------------------------------------------------------------|
B|-----------------------------------------------------------------------------|
G|------------------------------------0/5-5-5-5-5-5-5-5-5-5-5-5-5-5-5-5--------|
D|---5--5-5--5--5-5--2--2-2--0--0-0---0/5-5-5-5-5-5-5-5-5-5-5-5-5-5-5-5--------| x2
A|---5--5-5--5--5-5--2--2-2--0--0-0---0/3-3-3-3-3-3-3-3-3-3-3-3-3-3-3-3--------|
D|---5--5-5--4--4-4--2--2-2--0--0-0--------------------------------------------|


[Outro]

e|-----------------------------------------------------------------------------|
B|-----------------------------------------------------------------------------|
G|------------------------------------0/5-5-5-5-5-5-5-5-5-5-5-5-5-5-5-5--------|
D|---5--5-5--5--5-5--2--2-2--0--0-0---0/5-5-5-5-5-5-5-5-5-5-5-5-5-5-5-5--------| x4
A|---5--5-5--5--5-5--2--2-2--0--0-0---0/3-3-3-3-3-3-3-3-3-3-3-3-3-3-3-3--------|
D|---5--5-5--4--4-4--2--2-2--0--0-0--------------------------------------------|


************************************

| x   Dead note
| /   Slide up

************************************

            
            
Suggest correction
Creating personal tab
Creating personal tab
You can edit any tab online and save it as your Personal.

You can edit, replace or remove any tab part or add personal notes – all changes will be seen only by you.

Personal tabs can be accessed anytime from any device, even offline.
Learn more »
Give kudos to tab author, rate the tab!
1 2 3 4 5
comments
print report bad tab
guest
You may want to rate the tab now too:
select rating
Wanna post a correction for this tab? Suggest correction