Oops, an error
Loading. Please wait.

Pig Tab

4,329 views 9 this week
no commentswrite comment
1 2 3 4 5
please rate
add to favorites
launch autoscroll
font size
0
reset
how to read this tab
guitar tuner
Tab Pro tools
  • play this tab
  • loop segment
  • change instrument
  • show fretboard
  • metronome
×
Best way to learn
"Pig"
Autoscroll
slow
fast
+/-
esc
set tempo
stop
Contributor
-------------------------------------------------------------------------------
                             PIG - Sparklehorse
-------------------------------------------------------------------------------
Tabbed by: Cammertime
Email: cdeamel(at)gmail(dot)com

Tuning: Standard

This is a very rocky tune, moreso than a lot of other Sparklehorse songs. It does have a 
catchy hook to it that really made me want to learn it on my own. The way I play it 
sounds right. Turn up that drive and go to town!

Vocals come in after the below is played four times.

e|----------------------------------------------------------------------|
B|----------------------------------------------------------------------|
G|---------------------------6-x----------------------------------------|
D|---8-8-8-8-8-8-8-8-x-5-5-x-6-x-6-x-3/8--------------------------------|
A|---8-8-8-8-8-8-8-8-x-5-5-x-4-x-6-x-3/8--------------------------------|
E|---6-6-6-6-6-6-6-6-x-3-3-x-----4-x-1/6--------------------------------| x8

Then the chorus goes like this:

e|----------------------------------------------------------------------|
B|----------------------------------------------------------------------|
G|----------------------------------------------------------------------|
D|-4-4-4-4-4-4-4-4-4-4-4-4-4-4-4-4-6-6-6-6-6-6-6-6-6-6-6-6-6-6-6-6--8-6-|
A|-4-4-4-4-4-4-4-4-4-4-4-4-4-4-4-4-6-6-6-6-6-6-6-6-6-6-6-6-6-6-6-6--8-6-|
E|-2-2-2-2-2-2-2-2-2-2-2-2-2-2-2-2-4-4-4-4-4-4-4-4-4-4-4-4-4-4-4-4--6-4-|

e|----------------------------------------------------------------------|
B|----------------------------------------------------------------------|
G|----------------------------------------------------------------------|
D|-4-4-4-4-4-4-4-4-4-4-4-4-4-4-4-4-6-6-6-6-6-6-6-6-6-6-6-6-6-6-6-6-7-7-7|
A|-4-4-4-4-4-4-4-4-4-4-4-4-4-4-4-4-6-6-6-6-6-6-6-6-6-6-6-6-6-6-6-6-7-7-7|
E|-2-2-2-2-2-2-2-2-2-2-2-2-2-2-2-2-4-4-4-4-4-4-4-4-4-4-4-4-4-4-4-4-5-5-5|

Back to the main riff:

e|----------------------------------------------------------------------|
B|----------------------------------------------------------------------|
G|---------------------------6-x----------------------------------------|
D|---8-8-8-8-8-8-8-8-x-5-5-x-6-x-6-x-3/8--------------------------------|
A|---8-8-8-8-8-8-8-8-x-5-5-x-4-x-6-x-3/8--------------------------------|
E|---6-6-6-6-6-6-6-6-x-3-3-x-----4-x-1/6--------------------------------| x4

Chorus:

e|----------------------------------------------------------------------|
B|----------------------------------------------------------------------|
G|----------------------------------------------------------------------|
D|-4-4-4-4-4-4-4-4-4-4-4-4-4-4-4-4-6-6-6-6-6-6-6-6-6-6-6-6-6-6-6-6--8-6-|
A|-4-4-4-4-4-4-4-4-4-4-4-4-4-4-4-4-6-6-6-6-6-6-6-6-6-6-6-6-6-6-6-6--8-6-|
E|-2-2-2-2-2-2-2-2-2-2-2-2-2-2-2-2-4-4-4-4-4-4-4-4-4-4-4-4-4-4-4-4--6-4-|

e|----------------------------------------------------------------------|
B|----------------------------------------------------------------------|
G|----------------------------------------------------------------------|
D|-4-4-4-4-4-4-4-4-4-4-4-4-4-4-4-4-6-6-6-6-6-6-6-6-6-6-6-6-6-6-6-6------|
A|-4-4-4-4-4-4-4-4-4-4-4-4-4-4-4-4-6-6-6-6-6-6-6-6-6-6-6-6-6-6-6-6------|
E|-2-2-2-2-2-2-2-2-2-2-2-2-2-2-2-2-4-4-4-4-4-4-4-4-4-4-4-4-4-4-4-4------|

On the fifth time through this part, all the other instruments come back in.

e|----------------------------------------------------------------------|
B|----------------------------------------------------------------------|
G|----------------------------------------------------------------------|
D|-8-8-8-8-8-8-8-8-8-8-8-8-8-8-8-8--------------------------------------|
A|-8-8-8-8-8-8-8-8-8-8-8-8-8-8-8-8--------------------------------------|
E|-6-6-6-6-6-6-6-6-6-6-6-6-6-6-6-6--------------------------------------| x5

Main riff:

e|----------------------------------------------------------------------|
B|----------------------------------------------------------------------|
G|---------------------------6-x----------------------------------------|
D|---8-8-8-8-8-8-8-8-x-5-5-x-6-x-6-x-3/8--------------------------------|
A|---8-8-8-8-8-8-8-8-x-5-5-x-4-x-6-x-3/8--------------------------------|
E|---6-6-6-6-6-6-6-6-x-3-3-x-----4-x-1/6--------------------------------| x2

Chorus:

e|----------------------------------------------------------------------|
B|----------------------------------------------------------------------|
G|----------------------------------------------------------------------|
D|-4-4-4-4-4-4-4-4-4-4-4-4-4-4-4-4-6-6-6-6-6-6-6-6-6-6-6-6-6-6-6-6--8-6-|
A|-4-4-4-4-4-4-4-4-4-4-4-4-4-4-4-4-6-6-6-6-6-6-6-6-6-6-6-6-6-6-6-6--8-6-|
E|-2-2-2-2-2-2-2-2-2-2-2-2-2-2-2-2-4-4-4-4-4-4-4-4-4-4-4-4-4-4-4-4--6-4-| x3

End like this:

e|----------------------------------------------------------------------|
B|----------------------------------------------------------------------|
G|----------------------------------------------------------------------|
D|-4-4-4-4-4-4-4-4-4-4-4-4-4-4-4-4-6-6-6-6-6-6-6-6-6-6-6-6-6-6-6-6------|
A|-4-4-4-4-4-4-4-4-4-4-4-4-4-4-4-4-6-6-6-6-6-6-6-6-6-6-6-6-6-6-6-6------|
E|-2-2-2-2-2-2-2-2-2-2-2-2-2-2-2-2-4-4-4-4-4-4-4-4-4-4-4-4-4-4-4-4------|

That's it. At least, for that guitar part. There are lots of singular notes played on 
high E string that you can easily learn by ear. Thanks!

| /  slide up
| \  slide down
| h  hammer-on
| p  pull-off
| ~  vibrato
| +  harmonic
| x  Mute note
========================================================================
comments
We did not receive enough feedback on this tab! Please rate:
print report bad tab
1 2 3 4 5
I want to post or [tab]
guest
You may want to rate the tab now too:
select rating
Please do not post tabs as comments. Select "correction" instead!