Oops, an error
Loading. Please wait.

Return To Me tab

version 2
version 2

Whole song

  • This is based on Nessy87's version, it contains a ... Show more
19 views 6 this week
no commentswrite comment
1 2 3 4 5
3 more votes to show rating
add to favorites
×
Save as Personal and add changes to this tab that will be seen only by you. Learn more ›
×
You can save this tab as Personal to edit and correct it or add notes. All changes will be seen only by you. Learn more »
launch autoscroll
font size
0
reset
how to read this tab
guitar tuner
edit
Autoscroll
slow
fast
+/-
esc
set tempo
stop
About this tab version
This is based on Nessy87's version, it contains a few improvements and corrections but the changes are too many so I had to post a new version. Was this info helpful? Yes No
[Intro]
   Am        C        Fmaj7             
e|-----------------------------0-------|
B|-1-----0---1-----0--1-----1-----1----|
G|----2---------0--------2-----------2-| (x2)
D|--------------------3--------3-------|
A|-0---------3-------------------------|
E|-------------------------------------|

[Verse]
   Am        C        Fmaj7             
e|-----------------------------0-------|
B|-1-----0---1-----0--1-----1-----1----|
G|----2---------0--------2-----------2-|
D|--------------------3--------3-------|
A|-0---------3-------------------------|
E|-------------------------------------|
   arise   oh brother mountain      

   Am        C        Fmaj7             
e|-----------------------------0-------|
B|-1-----0---1-----0--1-----1-----1----|
G|----2---------0--------2-----------2-|
D|--------------------3--------3-------|
A|-0---------3-------------------------|
E|-------------------------------------|
our hooves hammering your coils

   Am        C        Fmaj7             
e|-----------------------------0-------|
B|-1-----0---1-----0--1-----1-----1----|
G|----2---------0--------2-----------2-|
D|--------------------3--------3-------|
A|-0---------3-------------------------|
E|-------------------------------------|
the rivers carve out your hollows

[Chorus]
   C        Fmaj7    C        Fmaj7             
e|-------------------------------------|
B|-1-----1--1-----1--1-----1--1-----1--|
G|-0--0--0--2--2-----0--0--0--2--2-----|
D|-2-----2--3--------2-----2--3--------|
A|-3--------3--------3--------3--------|
E|-------------------------------------|
with tears from me, return to me  

   C        Fmaj7 
e|------------------|
B|-1-----1--1-----1-|
G|-0--0--0--2--2----|
D|-2-----2--3-------|
A|-3--------3-------|
E|------------------|
 return to  me    
   G                  Fmaj7
e|-3-----3--3/5-----3-0--------0-------|
B|----3----------3----1-----1-----1----|
G|-------0------------2--2-----------2-|
D|--------------------3--------3-------|
A|--------------------3----------------|
E|-3--------3--------------------------|
my love                          oh my 

   G             Fmaj7
e|-3---3-3/5-----3-0-----0-----|
B|---3-------3-----1---1-------|
G|-----0-------0---2-2---------|
D|-----------------3-----3-----|
A|-----------------3-----------|
E|-3-----3---------------------|
     love

[Verse]
   Am        C        Fmaj7             
e|-----------------------------0-------|
B|-1-----0---1-----0--1-----1-----1----|
G|----2---------0--------2-----------2-| 
D|--------------------3--------3-------|
A|-0---------3-------------------------|
E|-------------------------------------|

   Am        C        Fmaj7             
e|-----------------------------0--|
B|-1-----0---1-----0--1-----1-----|
G|----2---------0--------2--------| 
D|--------------------3--------3--|
A|-0---------3--------------------|
E|--------------------------------|


   Am        C        Fmaj7             
e|-----------------------------0-------|
B|-1-----0---1-----0--1-----1-----1----|
G|----2---------0--------2-----------2-| 
D|--------------------3--------3-------|
A|-0---------3-------------------------|
E|-------------------------------------|
be still     oh rusting river

   Am        C        Fmaj7             
e|-----------------------------0-------|
B|-1-----0---1-----0--1-----1-----1----|
G|----2---------0--------2-----------2-| 
D|--------------------3--------3-------|
A|-0---------3-------------------------|
E|-------------------------------------|
 unlock her name from your grass

   Am        C        Fmaj7             
e|-----------------------------0-------|
B|-1-----0---1-----0--1-----1-----1----|
G|----2---------0--------2-----------2-| 
D|--------------------3--------3-------|
A|-0---------3-------------------------|
E|-------------------------------------|
unburden the pressures of fathoms

[Chorus]
   C        Fmaj7    C        Fmaj7             
e|-------------------------------|
B|-1-----1--1-----1--1-----1--1--|
G|-0--0--0--2--2-----0--0--0--2--|
D|-2-----2--3--------2-----2--3--|
A|-3--------3--------3--------3--|
E|-------------------------------|
of tears from me   return to  me

   C        Fmaj7 
e|------------------|
B|-1-----1--1-----1-|
G|-0--0--0--2--2----|
D|-2-----2--3-------|
A|-3--------3-------|
E|------------------|
return to   me 

   G                  Fmaj7
e|-3-----3--3/5-----3-0--------0-------|
B|----3----------3----1-----1-----1----|
G|-------0------------2--2-----------2-|
D|--------------------3--------3-------|
A|--------------------3----------------|
E|-3--------3--------------------------|
my love                        oh my 

   G             Fmaj7
e|-3---3-3/5-----3-0-----0-----|
B|---3-------3-----1---1-------|
G|-----0-------0---2-2---------|
D|-----------------3-----3-----|
A|-----------------3-----------|
E|-3-----3---------------------|
love                         oh my 

   Am        C        Fmaj7             
e|-----------------------------0-------|
B|-1-----0---1-----0--1-----1-----1----|
G|----2---------0--------2-----------2-| 
D|--------------------3--------3-------|
A|-0---------3-------------------------|
E|-------------------------------------|
  love

   Am        C        Fmaj7             
e|-----------------------------0-------|
B|-1-----0---1-----0--1-----1-----1----|
G|----2---------0--------2-----------2-| 
D|--------------------3--------3-------|
A|-0---------3-------------------------|
E|-------------------------------------|

   G                  Fmaj7
e|-3-----3--3/5-----3-0--------0-------|
B|----3----------3----1-----1-----1----|
G|-------0------------2--2-----------2-|
D|--------------------3--------3-------|
A|--------------------3----------------|
E|-3--------3--------------------------|
       return to the  clouds

   G                  Fmaj7
e|-3-----3--3/5-----3-0--------0-------|
B|----3----------3----1-----1-----1----|
G|-------0------------2--2-----------2-|
D|--------------------3--------3-------|
A|--------------------3----------------|
E|-3--------3--------------------------|
return      in      the caves

   G                  Fmaj7
e|-3-----3--3/5-----3-0--------0-------|
B|----3----------3----1-----1-----1----|
G|-------0------------2--2-----------2-|
D|--------------------3--------3-------|
A|--------------------3----------------|
E|-3--------3--------------------------|
 return     over      valleys        

   G                  Fmaj7
e|-3-----3--3/5-----3-0--------0-------|
B|----3----------3----1-----1-----1----|
G|-------0------------2--2-----------2-|
D|--------------------3--------3-------|
A|--------------------3----------------|
E|-3--------3--------------------------|
oh dear                        oh 

   G                  Fmaj7
e|-3-----3--3/5-----3-0--------0-------|
B|----3----------3----1-----1-----1----|
G|-------0------------2--2-----------2-|
D|--------------------3--------3-------|
A|--------------------3----------------|
E|-3--------3--------------------------|
   my love                     oh my love

   G                  Fmaj7
e|-3-----3--3/5-----3-0--------0--|
B|----3----------3----1-----1-----|
G|-------0------------2--2--------|
D|--------------------3--------3--|
A|--------------------3-----------|
E|-3--------3---------------------|
oh my love                      oh my 

[Verse]
   Am        C        Fmaj7             
e|-----------------------------0-------|
B|-1-----0---1-----0--1-----1-----1----|
G|----2---------0--------2-----------2-| 
D|--------------------3--------3-------|
A|-0---------3-------------------------|
E|-------------------------------------|
  love

   Am        C        Fmaj7             
e|-----------------------------0--|
B|-1-----0---1-----0--1-----1-----|
G|----2---------0--------2--------| 
D|--------------------3--------3--|
A|-0---------3--------------------|
E|--------------------------------|


***********************************
| /   Slide up
***********************************

            
            
Suggest correction
Creating personal tab
Creating personal tab
You can edit any tab online and save it as your Personal.

You can edit, replace or remove any tab part or add personal notes – all changes will be seen only by you.

Personal tabs can be accessed anytime from any device, even offline.
Learn more »
Give kudos to tab author, rate the tab!
1 2 3 4 5
comments
print report bad tab
guest
You may want to rate the tab now too:
select rating
Wanna post a correction for this tab? Suggest correction