Oops, an error
Loading. Please wait.

Sad Beautiful World Tab

version 1
version 1

Whole song

9,644 views 33 this week
no commentswrite comment
1 2 3 4 5
x 5
add to favorites
launch autoscroll
font size
0
reset
how to read this tab
guitar tuner
Autoscroll
slow
fast
+/-
esc
set tempo
stop
Help us to improve Ultimate-Guitar.com Take our survey!
×
Author
-------------------------------------------------------------------------------
                             SAD & BEAUTIFUL WORLD - Sparklehorse
-------------------------------------------------------------------------------
Tabbed by: darkstar94
Email: darkstar94@hotmail.com

Tuning: Standard

e|----------------------|------------------------|------------------|--2-----------|
B|--3-------3--3--------|--3p2-------------------|--3-----3-----3---|--3-----------|
G|--------2-------2-----|-------2-------2-----2--|-----0-----0------|--2-----------|
D|-----0------------0---|------------2----2s4----|------------------|--0-----------|
A|----------------------|------------------------|------------------|--------------|
E|----------------------|------------------------|--3---------------|--------------|

Just randomly arpegiate(pick random notes in the chord) the chords 
through-out the song.  Also slide plays chords on the slide in the 
background


Chords:

D  A  G  D x2

D         A        G     D
Sometimes I get so sad
D         A                G     D
Sometimes you just make me mad

A      G                 D
It's a sad and beautiful world
A      G                 D
It's a sad and beautiful world

Sometimes I just won't go
Sometimes I can't say 'no'

It's a sad and beautiful world
It's a sad and beautiful world

Sometimes days go speeding past
Sometimes this one seems like the last

It's a sad and beautiful world
It's a sad and beautiful world

That's basically it, any questions? just e-mail me
Suggest correction
comments
print report bad tab
guest
You may want to rate the tab now too:
select rating
Wanna post a correction for this tab? Suggest correction