Oops, an error
Loading. Please wait.

Sad Beautiful World Tab

version 2
version 2

Whole song

1,487 views 1 this week
no commentswrite comment
1 2 3 4 5
please rate
add to favorites
launch autoscroll
font size
0
reset
how to read this tab
guitar tuner
Autoscroll
slow
fast
+/-
esc
set tempo
stop
Help us to improve Ultimate-Guitar.com Take our survey!
×
Difficulty
intermediate
This is my first tab.  The guitar doesn't actually play the D chord during the 
chorus, but you can hear it in the back and it needs some filler if your'e playing by yourself

Intro (Thanks to darkstar94)
e|----------------------|------------------------|------------------|--2-----------|
B|--3-------3--3--------|--3p2-------------------|--3-----3-----3---|--3-----------|
G|--------2-------2-----|-------2-------2-----2--|-----0-----0------|--2-----------|
D|-----0------------0---|------------2----2s4----|------------------|--0-----------|
A|----------------------|------------------------|------------------|--------------|
E|----------------------|------------------------|--3---------------|--------------|




Verse
|---------------|--------------|-----------------------|
|----3----------|---3----------|---3-------------------|
|--2--h4--2---2-|-2--h4--2-----|-2--h4--2--------------|
|-----------4---|----------4-2-|----------4--0---------|
|---------------|--------------|-----------------0-4-5-|
|---------------|--------------|-----------------------|

Chorus
|--------------|-----------------|-2-------------------|
|---3----------|---3-------------|-3-------------------|
|-2--h4--2-----|-2--h4--2--------|-2-------------------|
|----------4-2-|----------4--0---|-0-------------------|
|--------------|-----------------|---------------------|
|--------------|-----------------|---------------------|

Chords:

D  A  G  D x2

D         A        G     D
Sometimes I get so sad
D         A                G     D
Sometimes you just make me mad

A      G                 D
It's a sad and beautiful world
A      G                 D
It's a sad and beautiful world

Sometimes I just won't go
Sometimes I can't say 'no'

It's a sad and beautiful world
It's a sad and beautiful world

Sometimes days go speeding past
Sometimes this one seems like the last

It's a sad and beautiful world
It's a sad and beautiful world
Suggest correction
Give kudos to tab author, rate the tab!
1 2 3 4 5
comments
print report bad tab
guest
You may want to rate the tab now too:
select rating
Wanna post a correction for this tab? Suggest correction