Oops, an error
Loading. Please wait.

This Town Aint Big Enough For Both Of Us chords

version 2
version 2

Whole song

Interactive

by Sparks
280 views 27 this week
1 commentread comment
1 2 3 4 5
x 4
add to favorites
×
Save as Personal and add changes to this tab that will be seen only by you. Learn more ›
×
You can save this tab as Personal to edit and correct it or add notes. All changes will be seen only by you. Learn more »
launch autoscroll
font size
0
reset
transpose
0
reset
simplify chords
display chords
guitar tuner
edit
Autoscroll
slow
fast
+/-
esc
set tempo
stop
Author
Difficulty
Strumming
There is no strumming pattern for this song yet. and get +5 IQ
Song: This town ain't big enough for both of us
Artist: Sparks
Composer: Ronald Mael
Album: Kimono my house

Tabbed by DJ ('DiddyD' on ultimateGuitar.com)
30th Mar 2017

A4 = x07750    Dm    = xx0231              D    = x57775
A  = x07650    C     = x35553              Bm   = x24432
Am = 577555    Bbdim = x12320 or xx2323    A/B  = x2xxxx
Gm = 355333    A6    = x07670              A/C# = x4xxxx

N.C.  = No chords

**************************************************************

[Intro]
     A4 A              A4 A
||:  /__/  /  /  /  |  /__/  /  /  / :||[x4]


[Verse 1]
A4
Zoo time ...is she and you time,
            Am                                Gm
The mammals are your favourite type, and you want her tonight,
   Dm
Heartbeat, increasing heartbeat,
               Dm
You hear the thunder of stampeding rhinos, 
   Gm          C
Elephants and tacky tigers!


[Chorus]
N.C.
This town ain't big e - nough for the both of us...

e |------------|
B |------------|
G |------------|
D |-------2-1--|
A |---0-1------|
E |------------|

Dm          Bbdim             A4
And it ain't me who's gonna leave!

     A4 A              A4 A     A6 A
||:  /__/  /  /  /  |  /__/  /  /__/  / :||[x4]


[Verse 2]
  A4
Flying, ...domestic flying,
                Am                      Gm
And when the stewardess is near do not show any fear,
  Dm
Heartbeat, increasing heartbeat,
           Dm
You are a khaki-coloured bombardier,
        Gm      C
It's Hiroshima that you're nearing!


[Chorus]
   This town ain't big e - nough for  both of us...
e |--1----1----1----1---1----1----1--|--1--0--0-------------|
B |----------------------------------|----------------------|
G |-------0----0----1---1----1----1--|--2--2--2-------------|
D |--3-------------------------------|-----------------2-1--|
A |----------------------------------|-------------0-1------|
E |----------------------------------|----------------------|

Dm          Bbdim             A4
And it ain't me who's gonna leave!

     A4 A              A4 A     A6 A
||:  /__/  /  /  /  |  /__/  /  /__/  / :||[x2]


[Verse 3]
  A4
Daily, except for Sunday,
           Am                        Gm
You dawdle in to the cafe where you meet her each day,
  Dm
Heartbeat, increasing heartbeat,
             Dm
As twenty cannibals have hold of you,
      Gm                 C
They need their protein just like you do!


[Chorus]
  This town ain't big e - nough for the both of us...
e |--1----1----1----1---1----1----1----|--1--0--0------------|
B |------------------------------------|---------------------|
G |-------0----0----1---1----1----1----|--2--2--2------------|
D |--3---------------------------------|----------------2-1--|
A |------------------------------------|------------0-1------|
E |------------------------------------|---------------------|

Dm          Bbdim             A4
And it ain't me who's gonna leave!

  A4 A             A           A/B A/C#
| /__/  /  /  /  | /_/ /_/ /_/  /__/ |


[Break]
  D            C           Bm             A4    A
| /  /  /  / | /  /  /  / | /  /  /  /  | /  /  /  / |

  D            C           Bm
| /  /  /  / | /  /  /  / | /  /  /  /  | 

  A
 Yeh-------------!
| /  /  /  / | /  /  /  / | /  /  /  /  | /  /  /  / |


     A4 A              A4 A     A6 A
||:  /__/  /  /  /  |  /__/  /  /__/  / :||[x4]


[Verse 4]
  A4
Shower, ...another shower,
            Am                             Gm
You got to look your best for her, and be clean everywhere,
   Dm
Heartbeat, increasing heartbeat,
              Dm
The rain is pouring on the foreign town,
      Gm            C
The bullets cannot cut you down!


[Chorus]
  This town ain't big e - nough for the both of us...
e |--1----1----1----1---1----1----1----|--1--0--0------------|
B |------------------------------------|---------------------|
G |-------0----0----1---1----1----1----|--2--2--2------------|
D |--3---------------------------------|----------------2-1--|
A |------------------------------------|------------0-1------|
E |------------------------------------|---------------------|

Dm          Bbdim             A
And it ain't me who's gonna leave!

     A4 A              A4 A     A6 A
||:  /__/  /  /  /  |  /__/  /  /__/  / :||[x6]


[Verse 5]
  A4
Census, ...the latest census,
                  Am
There'll be more girls who live in town,
                Gm
Though not e - nough to go 'round,
   Dm
Heartbeat, increasing heartbeat,
               Dm 
You know that this town isn't big enough,
    Dm
Not big enough for both of us,
 Dm
This town isn't big enough, not big enough for both of us,
Dm               D      D
 I ain't gonna leave!

            
            
Suggest correction
Creating personal tab
Creating personal tab
You can edit any tab online and save it as your Personal.

You can edit, replace or remove any tab part or add personal notes – all changes will be seen only by you.

Personal tabs can be accessed anytime from any device, even offline.
Learn more »
comments
print report bad tab
1 comment total.
+1 reply
guillermopeitto 10,444 Apr 02, 2017 09:27 AM

Wow DJ, really nice work here, I love it !

guest
You may want to rate the tab now too:
select rating
Wanna post a correction for this tab? Suggest correction