Oops, an error
Loading. Please wait.

Assemble The Empire Tab

version 1
version 1

Whole song

Interactive

1,133 views 1 this week
1 commentread comment
1 2 3 4 5
accurate
x 5
add to favorites
launch autoscroll
font size
0
reset
how to read this tab
guitar tuner
Tab Pro tools
  • play this tab
  • loop segment
  • change instrument
  • show fretboard
  • metronome
Autoscroll
slow
fast
+/-
esc
set tempo
stop
Contributor
standard tuning
w/ Delay - slightly faster than triplet
|-17----------|-------------|-------------|-------------|
|-------------|-------------|-------------|-17-14-------|
|-------------|-16----------|-14----------|-------------|
|-------------|-------------|-------------|-------------|
|-------------|-------------|-------------|-------------|
|-------------|-------------|-------------|-------------|

|-------------|-------------|-------------|-------------|
|-------------|-------------|-------------|-------------|
|-------------|-------------|-------------|-------------|
|-11----------|-9-----------|-------------|-------------|
|-------------|-------------|-9-----------|-7-----------|
|-------------|-------------|-------------|-------------|


* = w/ Delay - slightly slower than quaver
|-17----------|-------------|-------------|-15--14------|
|-------------|-------------|-------------|-*-------17--|
|-------------|-16----------|-14----------|-------------|
|-------------|-------------|-------------|-------------|
|-------------|-------------|-------------|-------------|
|-------------|-------------|-------------|-------------|
wide vibrato 
|-------------|-------------|-------------|-------------|
|-------------|-------------|-------------|-------------|
|-9h11--------|-------------|-------------|-------------|
|-------------|-------------|-------------|-------------|
|-------------|-------------|-------------|-------------|
|-------------|-------------|-------------|-------------|


Play bottom part 1st and 3rd times
|---17--------|-------------|-------------|-15----------|
|-----------17|-14----1414--|-14----1414--|-----14--17--|
|-------1614--|-------------|-------------|-----14--16--|
|-------------|-------------|-------------|-17----------|
|-------------|-------------|-------------|-------------|
|-------------|-------------|-------------|-------------|

|-------------|-------------|-------------|-------------|
|-------------|-------------|-------------|-------------|
|-1111--1111br|-1111--1111br|-1111--1111br|-9---9---9---|
|-------------|-------------|-------------|-------------|
|-9-9---9-9br-|-9-9---9-9br-|-9-9---9-9br-|-7---7---7---|
|-------------|-------------|-------------|-0---0---0---|

                                           1,3            2              4
|-------------|-------------|-------------|-------------||-------------||-------------|-------------|
|-------------|-------------|-------------|-------------||-------------||-------------|-------------|
|-9---9-9-9-9-|-6---6-6-6-6-|-2---2-2-2-2-|-------------||-------------||-5---5-5-5-5-|-7---7-7-7-7-|
|-11--11111111|-7---7-7-7-7-|-2---2-2-2-2-|-----0---2---||-------------||-5---5-5-5-5-|-7---7-7-7-7-|
|-0---0-0-0-0-|-0---0-0-0-0-|-0---0-0-0-0-|-4-----------||-------------||-3---3-3-3-3-|-5---5-5-5-5-|
|-------------|-------------|-------------|-------------||-3---3---3---||-------------|-------------|

|-------------|-------------|-------------|-------------||-------------||-------------|-------------|
|-------------|-------------|-------------|-----9-9-----||-------------||-------------|-------------|
|-------------|-------------|-------------|---------9-9-||-------------||-5---5---5---|-7---7---7---|
|-11--11111111|-9---9-9-9-9-|-7---7-7-7-7-|-7-7---------||-5---5---5---||-------------|-------------|
|-0---0-0-0-0-|-0---0-0-0-0-|-0---0-0-0-0-|-------------||-------------||-3---3---3---|-5---5---5---|
|-------------|-------------|-------------|-------------||(3)-(3)-(3)--||-------------|-------------|


ad lib. variations
|-------------|-------------|-------------|-2-----5-----||-2-----5-----|
|---232---5---|---232---5---|---232---5---|-----5-------||---2---------|
|-2-----2---2-|-2-----2---2-|-2-----2---2-|---------4\--||-----4---5\--|
|-------------|-------------|-------------|-------------||-------------|
|-------------|-------------|-------------|-------------||-------------|
|-------------|-------------|-------------|-------------||-------------|

|-------------|-------------|-------------|-------------||-------------|
|-------------|-------------|-------------|-------------||-------------|
|-1111--1111br|-1111--1111br|-1111--1111br|-9---9---9---||-9---9---9---|
|-------------|-------------|-------------|-------------||-------------|
|-9-9---9-9br-|-9-9---9-9br-|-9-9---9-9br-|-7---7---7---||-7---7---7---|
|-------------|-------------|-------------|-0---0---0---||-0---0---0---|



|-17----------|-------------|-------------|-------------|
|-------------|-------------|-------------|-17-14-------|
|-------------|-16----------|-14----------|-------------|
|-------------|-------------|-------------|-------------|
|-------------|-------------|-------------|-------------|
|-------------|-------------|-------------|-------------|

|-------------|-------------|-------------|-------------|
|-------------|-------------|-------------|-------------|
|-1111------11|-1111------11|-1111--------|-9---9---9---|
|-------------|-------------|-------------|-------------|
|-9-9-------99|-9-9-------99|-9-9---------|-7---7---7---|
|-------------|-------------|-------------|-0---0---0---|


* = w/ Delay - slightly slower than quaver
|-17----------|-------------|-------------|-15--14------|
|-------------|-------------|-------------|-*-------17--|
|-------------|-16----------|-14----------|-------------|
|-------------|-------------|-------------|-------------|
|-------------|-------------|-------------|-------------|
|-------------|-------------|-------------|-------------|

|-------------|-------------|-------------|-------------|
|-------------|-------------|-------------|-------------|
|-1111------11|-1111------11|-1111--------|-9---9---9---|
|-------------|-------------|-------------|-------------|
|-9-9-------99|-9-9-------99|-9-9---------|-7---7---7---|
|-------------|-------------|-------------|-0---0---0---|



|-------------|-------------|-------------|-------------|
|-------------|-------------|-------------|-------------|
|-------------|-------------|-------------|-9---9---9---|
|-4-4---4-4-4-|-4-4---4-4-4-|-4-4---4-4-4-|-------------|
|-4-4---4-4-4-|-4-4---4-4-4-|-4-4---4-4-4-|-7---7---7---|
|-2-2---0-2-0-|-2-2---0-2-0-|-2-2---0-2-0-|-------------|

|-------------|-------------|-------------|-------------|
|-------------|-------------|-------------|-------------|
|-1111--1111br|-1111--1111br|-1111--1111br|-9---9---9---|
|-------------|-------------|-------------|-------------|
|-9-9---9-9br-|-9-9---9-9br-|-9-9---9-9br-|-7---7---7---|
|-------------|-------------|-------------|-0---0---0---|



|-------------|
|-------------|
|-------------|
|-4-4---------|
|-4-4---------|
|-2-2---------|

|-------------|
|-------------|
|-1111--------|
|-------------|
|-9-9---------|
|-------------|
comments
print report bad tab
1 comment total.
0 reply
dave04 wrote on August 25 2005, 12:00 am

great tab

I want to post or [tab]
guest
You may want to rate the tab now too:
select rating
Please do not post tabs as comments. Select "correction" instead!