Oops, an error
Loading. Please wait.

Breaking The Broken Bass Tab

version 1
version 1

Whole song

Interactive

931 views 1 this week
2 commentsread comments
1 2 3 4 5
please rate
add to favorites
launch autoscroll
font size
0
reset
guitar tuner
Autoscroll
slow
fast
+/-
esc
set tempo
stop
Help us to improve Ultimate-Guitar.com Take our survey!
×
00:09
|------------------------------------|
|------------------------------------|
|9-44-5-55-7-77-999999---------------|
|------------------------------------|    X2

00:17
|-----------------------------------|
|-----------------------------------|
|999-7-4444-2-2-77777777------------|
|-----------------------------------|    X4

00:42
|------------------------------------|
|------------------------------------|
|9-44-5-55-7-77-999999---------------|
|------------------------------------|    X2

00:51
|-----------------------------------------------------------------------|
|-----------------------------------------------------------------------|
|00000000000-------------------55555555555555555-5h75-2-----------------|
|------------------22222222222------------------------------------------|    X2

01:16
|-----------------------------------|
|-----------------------------------|
|999-7-4444-2-2-77777777------------|
|-----------------------------------|    X4

01:46
|------------------------------------|
|------------------------------------|
|9-44-5-55-7-77-999999---------------|
|------------------------------------|    X2

01:56
|-----------------------------------------------------------------------|
|-----------------------------------------------------------------------|
|00000000000-------------------55555555555555555-5h75-2-----------------|
|------------------22222222222------------------------------------------|    X2

02:20
|---------------------------------------------------------------------------------|
|---------------------------------------------------------------------------------|
|99999999-77777777-5555555555555555-7777777777777777-5555555555555555-------------|
|---------------------------------------------------------------------------------|    X2

02:44
|---------------------------------------------------------------------------------|
|---------------------------------------------------------------------------------|
|9-9-11-11-12~--11~--9~--7777777777777777-5555555555555555------------------------|
|---------------------------------------------------------------------------------|    X2
elevens and twelves
03:09
|-----------------------------------------------------------------------|
|-----------------------------------------------------------------------|
|00000000000-------------------55555555555555555-5h75-2-----------------|
|------------------22222222222------------------------------------------|    X2

03:33
|------------------------------------|
|------------------------------------|
|9-44-5-55-7-77-999999---------------|
|------------------------------------|    X2
Suggest correction
Give kudos to tab author, rate the tab!
1 2 3 4 5
comments
print report bad tab
2 comments total.
0 reply
chrisazgo 10 wrote on June 27 2009, 04:51 am

I think theres a verse ending variant at 0:27 and later in the 2nd verse. Also theres another vairiant i think at end of 2nd verse 1:43. I will try to work it out when i have some time as i love the sound of this bassline. Other than that this tab seems good.

0 reply
chrisazgo 10 wrote on July 5 2009, 05:21 am

The alt verse ending at 0:27 and later is:
A|-101010-/12-\9
Instead of some of the 7's.

guest
You may want to rate the tab now too:
select rating
Please do not post tabs as comments. Select "correction" instead!