Oops, an error
Loading. Please wait.

Breaking The Broken Tab

version 1
version 1

Whole song

Interactive

1,147 views 3 this week
no commentswrite comment
1 2 3 4 5
please rate
add to favorites
launch autoscroll
font size
0
reset
how to read this tab
guitar tuner
Autoscroll
slow
fast
+/-
esc
set tempo
stop
Help us to improve Ultimate-Guitar.com Take our survey!
×
Author
Artist: Sparta
Song: Breaking The Broken
Album: Porcelain
Transcribed By: Kevin
Email: ntense23@hotmail.com


Standard Tuning


Intro:
E|--------------------------------------------|
B|--------------------------------------------|
G|--7--7--77--7--7--77//9-9--9/12121010-------|
D|--5--5--55--5--5--55//7-7--7/-x-x-x-x-------|x2
A|--7--7--77\\3--3--33//5-5--5/1010-8-8-------|
E|--0--0--00--0--0--00--0-0--0--0-0-0-0-------|


Pre-Verse: guitar 1
E|-----------------------------------------------|
B|--17--1213-15-1315-17-1517--19-15-19/2020------|
G|-----------------------------------------------|
D|-----------------------------------------------|x2
A|-----------------------------------------------|
E|-----------------------------------------------|

Pre-Verse: Guitar 2
E|-----------------------------------------------|
B|-----------------------------------------------|
G|--7--7--77--7--7--77//9-9--9/12121010----------|
D|--5--5--55--5--5--55//7-7--7/-x-x-x-x----------|x2
A|--7--7--77\\3--3--33//5-5--5/1010-8-8----------|
E|--0--0--00--0--0--00--0-0--0--0-0-0-0----------|


Verse: play really fast
E|-----------------------------------------------|
B|-----------------------------------------------|
G|--16161616-14141414-12121212/141411111---------|
D|-----------------------------------------------|x4
A|-----------------------------------------------|
E|-----------------------------------------------|


Pre-Verse: guitar 1
E|-----------------------------------------------|
B|--17--1213-15-1315-17-1517--19-15-19/2020------|
G|-----------------------------------------------|
D|-----------------------------------------------|x2
A|-----------------------------------------------|
E|-----------------------------------------------|

Pre-Verse: Guitar 2
E|-----------------------------------------------|
B|-----------------------------------------------|
G|--7--7--77--7--7--77//9-9--9/12121010----------|
D|--5--5--55--5--5--55//7-7--7/-x-x-x-x----------|x2
A|--7--7--77\\3--3--33//5-5--5/1010-8-8----------|
E|--0--0--00--0--0--00--0-0--0--0-0-0-0----------|


Chorus:                 figure out strumming for this
E|-----3--33-33-3333-----------------------------------|
B|-----3--33-33-3333-----------------------------------|
G|-----4--44-44-4444---12--14--16--14--12--16--12--16--|
D|--5--5--55-55-5555----x---x---x---x--12---x--12---x--|x2
A|--5--5--55-55-5555---10--12--14--12--10--14--10--14--|
E|--3--3--33-33-3333----0---0---0---0---0---0---0---0--|


Verse: play really fast
E|-----------------------------------------------|
B|-----------------------------------------------|
G|--16161616-14141414-12121212/141411111---------|
D|-----------------------------------------------|x5
A|-----------------------------------------------|
E|-----------------------------------------------|


Pre-Verse: guitar 1
E|-----------------------------------------------|
B|--17--1213-15-1315-17-1517--19-15-19/2020------|
G|-----------------------------------------------|
D|-----------------------------------------------|x2
A|-----------------------------------------------|
E|-----------------------------------------------|

Pre-Verse: Guitar 2
E|-----------------------------------------------|
B|-----------------------------------------------|
G|--7--7--77--7--7--77//9-9--9/12121010----------|
D|--5--5--55--5--5--55//7-7--7/-x-x-x-x----------|
A|--7--7--77\\3--3--33//5-5--5/1010-8-8----------|
E|--0--0--00--0--0--00--0-0--0--0-0-0-0----------|

E|-----------------------------------------------|
B|-----------------------------------------------|
G|--7--7--77--7--7--77//9-9--9/12121414----------|
D|--5--5--55--5--5--55//7-7--7/-x-x-x-x----------|
A|--7--7--77\\3--3--33//5-5--5/10101212----------|
E|--0--0--00--0--0--00--0-0--0--0-0-0-0----------|


Chorus:                 figure out strumming for this
E|-----3--33-33-3333-----------------------------------|
B|-----3--33-33-3333-----------------------------------|
G|-----4--44-44-4444---12--14--16--14--12--16--12--16--|
D|--5--5--55-55-5555----x---x---x---x--12---x--12---x--|x2
A|--5--5--55-55-5555---10--12--14--12--10--14--10--14--|
E|--3--3--33-33-3333----0---0---0---0---0---0---0---0--|


Solo: first part
E|-----------------------------------------------------------------|
B|-----------------------------------------------------------------|
G|-----------------------------------------------------------------|
D|-12121212121212121212121212121212141414141414141414141414141414--|
A|-----------------------------------------------------------------|
E|-----------------------------------------------------------------|\
                                                                     x3
E|-----------------------------------------------------------------|/
B|-----------------------------------------------------------------|
G|-1212121111111414141616161616161616/1919191616161414141616161616-|
D|-----------------------------------------------------------------|
A|-----------------------------------------------------------------|
E|-----------------------------------------------------------------|

Solo: second part  ?



Chorus:                 figure out strumming for this
E|-----3--33-33-3333-----------------------------------|
B|-----3--33-33-3333-----------------------------------|
G|-----4--44-44-4444---12--14--16--14--12--16--12--16--|
D|--5--5--55-55-5555----x---x---x---x--12---x--12---x--|x2
A|--5--5--55-55-5555---10--12--14--12--10--14--10--14--|
E|--3--3--33-33-3333----0---0---0---0---0---0---0---0--|


Pre-Verse: guitar 1
E|-----------------------------------------------|
B|--17--1213-15-1315-17-1517--19-15-19/2020------|
G|-----------------------------------------------|
D|-----------------------------------------------|x2
A|-----------------------------------------------|
E|-----------------------------------------------|

Pre-Verse: Guitar 2
E|-----------------------------------------------|
B|-----------------------------------------------|
G|--7--7--77--7--7--77//9-9--9/12121010----------|
D|--5--5--55--5--5--55//7-7--7/-x-x-x-x----------|
A|--7--7--77\\3--3--33//5-5--5/1010-8-8----------|
E|--0--0--00--0--0--00--0-0--0--0-0-0-0----------|

E|-----------------------------------------------|
B|-----------------------------------------------|
G|--7--7--77--7--7--77//9-9--9/12121414----------|
D|--5--5--55--5--5--55//7-7--7/-x-x-x-x----------|
A|--7--7--77\\3--3--33//5-5--5/10101212----------|
E|--0--0--00--0--0--00--0-0--0--0-0-0-0----------|
Suggest correction new What's this?
You can suggest a correction to this tab. Community and Mods will review your correction and vote to approve or reject it.
comments
We did not receive enough feedback on this tab! Please rate:
print report bad tab
1 2 3 4 5
guest
You may want to rate the tab now too:
select rating
Please do not post tabs as comments. Select "correction" instead!