Oops, an error
Loading. Please wait.

Breaking The Broken Tab

version 2
version 2

Whole song

Interactive

7,860 views 15 this week
1 commentread comment
1 2 3 4 5
excellent!
x 9
add to favorites
launch autoscroll
font size
0
reset
how to read this tab
guitar tuner
Autoscroll
slow
fast
+/-
esc
set tempo
stop
Help us to improve Ultimate-Guitar.com Take our survey!
×
Sparta-Breaking the Broken.
Jim is the left guitar and Paul is the right.

 Left Guitar-Intro
e|----------------------------------|
B|----------------------------------|
G|-9-9-999-9--9-9-9--9-121212111111-|
D|-0-0-000-0--0-0-0--0--------------|
A|-7-------------------101010-9-9-9-|
E|---7-888-8-101010-10--------------|

 Right Guitar-Intro
e|-1212--------------------------------1212----1515-|
B|---------1213121312131213151513131515----1515-----|
G|-----1414-----------------------------------------| paul is using delay.
D|--------------------------------------------------|
A|--------------------------------------------------|
E|--------------------------------------------------|

 Left-Verse
e|-----------------|
B|-0--0---0---0--0-|
G|-9--9---9--12-11-| use a chorus effect.
D|-0--0---0---0--0-|
A|-7---------------|
E|----7--10--10-10-|

 Right-Verse
e|-12--12----------|
B|-12--10--8--10-7-|
G|-----------------| keep the delay on.
D|-----------------|
A|-----------------|
E|-----------------|

 Leftt-Interlude
e|------------------------------| this is the part before the chorus. before the 
B|------------------------------| first chorus just play the intro. but before 
G|-9-9-999-9--9-9-9--9-12121214-| the second chorus you play it the way i just 
D|-0-0-000-0--0-0-0--0----------| wrote down right here. also they do this at the
A|-7-------------------10101012-| end of the song. listen to the song and youll 
E|---7-888-8-101010-10----------| know what im talking about.

 Right-Interlude
e|-1212-----------------------------------------| 
B|---------1213121312131213151513131515---------|
G|-----1414----------------------------12121211-| same thing goes for paul too.
D|----------------------------------------------|
A|-------------------------------------101010-9-|
E|----------------------------------------------|

 Left-Chorus
e|-3-------------------------|
B|-3--8--------1---0--1---0--|
G|-0--7--------0---0--0---0--|
D|-0-----------2---2--2---2--|
A|-2--7--------3---3--3---3--|
E|-3--0----------------------|
                                                   
 Right-Chorus                                       
e|-3-------------------------|
B|-3-------------------------|
G|-0--12-11-9----------------|
D|-0-----------10--9--10--9--|
A|-2--10--9-7----------------|
E|-3------------8--8---8--8--|

 Left-Middle
e|---------------------------------| use volume swells. jim uses his volume 
B|---------------------------------| pedal so you could do it that way or you 
G|------------12-11-9----11-9-7----| could just use your volume knob. put delay 
D|-5--12-9-------------------------| on too.
A|---------------------------------|
E|---------------------------------|

 Right-Middle
e|------------------------------------|
B|--------------------12--15-12----12-|
G|------9----11-12-14-----------14----| figure out the amount of picking 
D|-9----------------------------------| yourself its not hard to do it.
A|------------------------------------|
E|------------------------------------|

 Left-Middle
e|---------------------------------------------| he does this little variation 
B|---------------------------------------------| during the last time in the 
G|--------------12--12--11--11--12--12--14--11-| middle. also when he starts to 
D|-5--12-9----12--12--12--12--12--12--12--12---| sing he stops doing the volume
A|---------------------------------------------| sweels and just picks out the 
E|---------------------------------------------| notes instead.

 Right-Middle
e|-----12--12----10--10-----------------| this is for the last time too. he plays
B|---10--10----10--10----1012--1012-----| this thing twice. during the second 
G|-11--------11--------11----11----1111-| time he plays it he just more or less
D|--------------------------------------| strums everything together. do that
A|--------------------------------------| and you will have this song mastered in
E|--------------------------------------| no time.
comments
print report bad tab
1 comment total.
0 reply
zaccy 537 wrote on February 17 2005, 12:00 am

nice tab. sparta kicks arse. i hope they make it big

I want to post or [tab]
guest
You may want to rate the tab now too:
select rating
Please do not post tabs as comments. Select "correction" instead!