Oops, an error
Loading. Please wait.

Collapse Bass Tab

version 2
version 2

Whole song

Interactive

172 views 1 this week
no commentswrite comment
1 2 3 4 5
2 more votes to show rating
add to favorites
launch autoscroll
font size
0
reset
guitar tuner
Autoscroll
slow
fast
+/-
esc
set tempo
stop
Help us to improve Ultimate-Guitar.com Take our survey!
×
Author
Difficulty
novice
-------------------------------------------------------------------------------
	     Sparta - Wiretap Scars - 04 - Collapse
                          Bass tab
-------------------------------------------------------------------------------

Tabbed by: Birkinstein
On: 22 April 2008


Tuning: Standard EADG

Intro
  D       Bm      G       Bm
G|--------------------------------|
D|--------------------------------|
A|5-------2---------------2-------|
E|----------------3---------------| x2


Verse 1
"The host of the show comes down..."
  D       Bm      G       Bm
G|--------------------------------|
D|--------------------------------|
A|5-------2---------------2-------|
E|----------------3---------------| x4


Pre-chorus
"Words speak and choose..."
  N.C.
G|----------------|----------------|----------------|----------------|
D|----------------|----------------|----------------|----------------|
A|4-/5-/9---------|4-/5-/12\-9-----|4-/5\-2---------|4-/5-/7---------|
E|----------------|----------------|----------------|----------------|

G|----------------|----------------|----------------|----------------|
D|----------------|----------------|----------------|----------------|
A|4-/5-/9---------|4-/5-/12\-9-----|4-/5\-2---------|4-/5------------|
E|----------------|----------------|----------------|------0---------|


Break
  D        Bm       G
G|------------------------------------|
D|12----------------------------------|
A|---------14-------10-------10-------|
E|------------------------------------| x2


Verse 2
"The host had his mouth sewn shut..."
  D       Bm      G       Bm
G|--------------------------------|
D|--------------------------------|
A|5-------2---------------2-------|
E|----------------3---------------| x4


Chorus
"....To set it down"
  Bm              D               G
G|----------------------------------------------------------------|
D|----------------------------------------------------------------|
A|2-222-22-22-2-2/5-555-55-55-555---------------------------------|
E|--------------------------------3-333-33-33-3-3-3-333-33-33-3333| x2


Pre-chorus
"Words speak and choose..."
N.C.
G|----------------|----------------|----------------|----------------|
D|----------------|----------------|----------------|----------------|
A|4-/5-/9---------|4-/5-/12\-9-----|4-/5\-2---------|4-/5\-7---------|
E|----------------|----------------|----------------|----------------|

G|----------------|----------------|----------------|----------------|
D|----------------|----------------|----------------|----------------|
A|4-/5-/9---------|4-/5-/12\-9-----|4-/5\-2---------|4-/5------------|
E|----------------|----------------|----------------|------0---------| 

Hold last note for 1 bar break


Chorus
"....To set it down"
  Bm              D               G
G|----------------------------------------------------------------|
D|----------------------------------------------------------------|
A|2-222-22-22-2-2/5-555-55-55-555---------------------------------|
E|--------------------------------3-333-33-33-3-3-3-333-33-33-3333| x2 

End
  F#m
G|--------|
D|--------|
A|--------|
E|2-------| 


| /  slide up
| \  slide down
| h  hammer-on
| p  pull-off
| ~  vibrato
| +  harmonic
| x  Mute note
===============================================================================

Suggest correction
Give kudos to tab author, rate the tab!
1 2 3 4 5
comments
print report bad tab
guest
You may want to rate the tab now too:
select rating
Wanna post a correction for this tab? Suggest correction