Oops, an error
Loading. Please wait.

Cut Your Ribbon Bass Tab

version 1
version 1

Whole song

Interactive

555 views 3 this week
1 commentread comment
1 2 3 4 5
accurate
x 3
add to favorites
launch autoscroll
font size
0
reset
guitar tuner
Tab Pro tools
  • play this tab
  • loop segment
  • change instrument
  • show fretboard
  • metronome
×
Best way to learn
"Cut Your Ribbon"
Autoscroll
slow
fast
+/-
esc
set tempo
stop
Contributor
Sparta
Cut your ribbon
Tabbed by mavrick45
Mavrick_45@sugarray.com

Guitar intro

Part one
G-----------------------------------------------------------------------------
D-----------------------------------------------------------------------------  X4
A-7-777---5-555---2-222---3-333----777---99---7---99---777---99---7—99--------
E-----------------------------------------------------------------------------

Part two
G-----------------4-4-4-4---2-2-2---42424---------
D-------------------------------------------------   X2
A--------6*---------------------------------------
E---0*--------------------------------------------

Rest
Part one   X4
Part two   X4

Part three
G----------------------
D----------------------    X4
A---2*---3---0*--------
E-------------------3*-

Part four
G---------------------------
D---------------------------   X4
A---777---99---7---99-------
E---------------------------


Part two   X2
Part four   X4


Ending
G------
D------
A---7*-
E------


* = hold note
comments
We did not receive enough feedback on this tab! Please rate:
print report bad tab
1 2 3 4 5
1 comment total.
0 reply
propagandhi81 wrote on August 2 2003, 12:00 am

Pretty good but I think the "7/9" on part one is actally:

A|---7-99-7-99---7-99-7-99

I want to post or [tab]
guest
You may want to rate the tab now too:
select rating
Please do not post tabs as comments. Select "correction" instead!