Oops, an error
Loading. Please wait.

Cut Your Ribbon Tab

version 1
version 1

Whole song

Interactive

3,934 views 15 this week
no commentswrite comment
1 2 3 4 5
accurate
x 3
add to favorites
launch autoscroll
font size
0
reset
how to read this tab
guitar tuner
Tab Pro tools
  • play this tab
  • loop segment
  • change instrument
  • show fretboard
  • metronome
Autoscroll
slow
fast
+/-
esc
set tempo
stop
Contributor
#----------------------------------PLEASE NOTE---------------------------------#
#This file is the author's own work and represents their interpretation of the #
#song. You may only use this file for private study, scholarship, or research. #
#------------------------------------------------------------------------------#

Gtr I (E A D G B E) - 'Sparta - CUt Your Ribbon'

    E=210
   6/8
    Gtr I        Intro
                                                                 PM|
       E    S  S  S S   E  E E  E S S  S S E E E E S  S  S  S E  E  E E S  S  S  S E
||-----------------------------------------------------------------------------------|
||o-------------------------------0-0--0-0-0-0-0-------------------------------------|
||----12---12-12--0-0--11-11----9-9-9--9-9-9-9-9-----11-11-11---11-11-----11-11-11---|
||--(<12>)-------------------0-------------------------------------------------------|
||o--------------------------0--7-7-7--7-7-7-7-7------9--9--9----9--9------9--9--9---|
||----12---12-12--0-0--10-10-0--7-7-7--7-7-8-8-8-0-0----------0--0--0-0-0----------0-|


   E  E         S S
|--------||------------|
|-------o||------------|
|-11-11--||------------|
|--------||------------|
|--9--9-o||------------|
|--------||------------|


  E S S  S S E S S S  S E S S S S E Q
|----------------------------------------|
|----------------------------------------|
|-7-7-7-X-----7-7-7-7-X---7-7-7-7---7----
|-6-6-6-X-----6-6-6-6-X---6-6-6-6---6----|
|-9-9-9-X-----9-9-9-9-X---9-9-9-9---9----|
|----------------------------------------|
Chorus 

  H. E E E   E. E S E E E    E  S  E  S  E  S  S  S  S
|----------|--------------|----------------------------|
|----0-0---|--------------|----------------------------|
|----------|-8--8-8-8-----|-16-16-16-16-16-16-16-16-14-|
|-2--2-2---|----------0---|-13-13-13-13-13-13-13-13-11-|
|-2--2-2---|-6--6-6-6-6-0-|-14-14-14-14-14-14-14-14-12-|
|-0--0-0-0-|------------0-|----------------------------|


   E  S  S  S  S  E  S  S S S   H. E E E
|-----------------------------|----------|
|-----------------------------|----------|
|-14-14-14-14-14-14-14-14-----|----------|
|-11-11-11-11-11-11-11-11-----|-2--2-2-2-|
|-12-12-12-12-12-12-12-12-0-0-|-2--2-2-2-|
|-----------------------------|-0--0-0-0-|


  E. E S E E E    E  S  E  S  E  S  E  S
|--------------|-------------------------|
|----0---0-----|-------------------------|
|-8--8-8-8-----|-16-16-16-16-16-16-16-14-|
|--------------|----------------------11-|
|-6--6-6-6-6-6-|-14-14-14-14-14-14-14-12-|
|----------0-0-|-------------------------|


   E  S  S  S  S  E  S  S  S  S       W   +W    +W    +W
|-------------------------------|-||----|-----|-----|------||
|-------------------------------|-||o---|-----|-----|-----o||
|-14-14-14-14-14-14-14-14-14-14-|-||----|-----|-----|------||
|-11-11-11-11-11-11-11-11-11-11-|-||--2-|-(2)-|-(2)-|-(2)--||
|-12-12-12-12-12-12-12-12-12-12-|-||o-2-|-(2)-|-(2)-|-(2)-o||
|-------------------------------|-||--0-|-(0)-|-(0)-|-(0)--||


***************************************************************************************
* Generated using Power Tab Editor by Brad Larsen - http://powertab.guitarnetwork.org *
***************************************************************************************
comments
We did not receive enough feedback on this tab! Please rate:
print report bad tab
1 2 3 4 5
I want to post or [tab]
guest
You may want to rate the tab now too:
select rating
Please do not post tabs as comments. Select "correction" instead!