Oops, an error
Loading. Please wait.

Cut Your Ribbon Tab

version 2
version 2

Whole song

Interactive

7,763 views 3 this week
no commentswrite comment
1 2 3 4 5
please rate
add to favorites
launch autoscroll
font size
0
reset
how to read this tab
guitar tuner
Autoscroll
slow
fast
+/-
esc
set tempo
stop
Help us to improve Ultimate-Guitar.com Take our survey!
×
Cut Your Ribbon - Sparta
Left Speaker - Guitar 1, Jim Ward
Right Speaker - Guitar 2 , Paul Hinijos
Standard Tuning

Guitar 1 - Jim

Intro/Verses

e---------------------------------------------------------------|
b---------------------------------------------------------------|
g-12-12-12--11-11-11--9-9-9-9-9-9-----1111--1111----1111--1111--| (x2)
d-x--x--x---x--x--x---x-x-x-x-x-x------x-x---x-x-----x-x---x-x--|
a-x--x--x---x--x--x---7-7-7-7-7-7------9-9---9-9-----9-9---9-9--|
E-12-12-12--10-10-10--7-7-7-8-8-8--0-0-----0-----0-0-----0------|

after second time strum this chord (only on intro and into next 2nd verse)

e------|
b------|
g------|
d-14---|
a-11---|
E------|

Chorus

e-------------|
b-------------|
g------8-4-2--|
d-2-2--x-4-2--|
a-2-2--6-2-0--|
E-0-0---------|

on 2nd chorus 2nd time thru play this

e-----------------|
b-----------------|
g-----8-16-14-----|
d-2-2-x-x--x------|
a-2-2-6-14-12-----|
E-0-0-------------|

Interlude

e-----------------|
b-----------------|
g-----------------|
d-----------------|
a-----9-9---9-9---|
E-0-0-----0-------|
pm................

Guitar 2 - Paul

Verses

e---------------------------------------------------------------------|
b---------------------------------------------------------------------|
g-16-16-16-16-12-12-12-12-14-14-14-14----1111---1111----1111---1111---|
d-x--x--x--x--x--x--x--x--x--x--x--x------x-x----x-x-----x-x----x-x---|
a-14-14-14-14-10-10-10-10-12-12-12-12-----9-9----9-9-----9-9----9-9---|
E-------------------------------------0-0------0-----0-0------0-------|

Chorus

e------------17-----|
b------------x------|
g------8-16--14-----|
d-2-2--x-x----------|
a-2-2--6-14---------|
E-0-0---------------|

2nd time second chorus

e-----------17----|
b-17-16-----x-----|
g-x--x--16--14----|
d-14-13-x---------|
a-------14--------|
E-----------------|

Interlude

e---------------------------------------|
b-12----10------------------------------|
g----11----11-12~-----9999999-7777777---|
d---------------------------------------|
a---------------------------------------|
E---------------------------------------|
Suggest correction
Give kudos to tab author, rate the tab!
1 2 3 4 5
comments
print report bad tab
guest
You may want to rate the tab now too:
select rating
Please do not post tabs as comments. Select "correction" instead!