Oops, an error
Loading. Please wait.

Echodyne Harmonic Tab

version 1
version 1

Whole song

471 views 1 this week
no commentswrite comment
1 2 3 4 5
please rate
add to favorites
launch autoscroll
font size
0
reset
how to read this tab
guitar tuner
Autoscroll
slow
fast
+/-
esc
set tempo
stop
Help us to improve Ultimate-Guitar.com Take our survey!
×
Echodyne Harmonic -by- Sparta


Jim plays piano for this song so this is all 2nd guitar, Paul.

Intro/Verse - slight distortion

1-1-0---0-1-0----0-1-0----0-1-0-----0-5-5------------0-0-3---3----|
2----------------------------------------6-6-3-3----------0-0-0-0-|
3-----2-------2--------2----------2------------------------2---2--| (x5)
4-----------------------------------------------------------------|
5-----------------------------------------------------------------|
6-----------------------------------------------------------------|

2nd part of verse -(x8)is a estimated amount of times to pick each chord

1-15    15    12    10    9     10    12    10    ---|
2-14(x8)13(x8)12(x8)12(x8)10(x8)10(x8)12(x8)12(x8)---|
3----------------------------------------------------|
4----------------------------------------------------|
5----------------------------------------------------|
6----------------------------------------------------|

Chorus - distorted
1-------------------------------------|
2-------------------------------------|
3---7  7/10  14   --------------------|  (x2)
4---X  X/ X   X    -------------------|
5---5  5/ 8  12   --------------------|
6-------------------------------------|

1st Verse (x4)

2nd Verse (x2)

Chorus (x4)

Keyboard Bridge for Guitar - Distorted

1---12-12--12-12--12--12-12--12-12--12--13-13--13-13--13--13-13-15-15-15-15-|
2-10-----10-----10--10-----10-----10--10-----10-----10--10------------------|
3---------------------------------------------------------------------------|
4---------------------------------------------------------------------------|
5---------------------------------------------------------------------------|
6---------------------------------------------------------------------------|

Guitar Bridge after Keyboard Solo

1----------------------------|
2-15   13   10   11   10   --|
3-X(x6)X(x6)X(x2)X(x6)X(x6)--| (x4)
4-12   10   7    8    7    --|
5----------------------------|
6----------------------------|

Outro

1-12- keep repeting , last note ring out
2-X--
3----
4----
5----
6----

Optional Piano Part for Guitar (Intro/Verses/Outro)

1-----------------------------|
2-----------------------------|
3-----------------------------|
4-----------------------------|
5---------5-3-2-3-2-0-2-0-----|
6--4-5-7-0--------------------|
Suggest correction
Give kudos to tab author, rate the tab!
1 2 3 4 5
comments
print report bad tab
guest
You may want to rate the tab now too:
select rating
Wanna post a correction for this tab? Suggest correction