Oops, an error
Loading. Please wait.

Glasshouse Tarot Tab

version 1
version 1

Whole song

Interactive

1,767 views 1 this week
no commentswrite comment
1 2 3 4 5
please rate
add to favorites
launch autoscroll
font size
0
reset
how to read this tab
guitar tuner
Autoscroll
slow
fast
+/-
esc
set tempo
stop
Help us to improve Ultimate-Guitar.com Take our survey!
×
Glasshouse Tarot - Sparta
Guitar 1 - Left Speaker, Jim Ward
Guitar 2 - Right Speaker, Paul Hinijos
Tuning - Drop D

Intro

Guitar 1 - Jim

e-5~-7~----------------------------------|
b--------8~-7~---------------------------|
g--------------7~~-----------------------|
d-------------------5-5-5-0-0-0-0-0~~----|
a----------------------------------------|
D----------------------------------------|

after playing that for a while play this

e-1717171717-15151515-14141414-151515-----------------|
b----------------------------------------1717171717---|
g-----------------------------------------------------|
d-----------------------------------------------------|
a-----------------------------------------------------|
D-----------------------------------------------------|

Guitar 2 - Paul

e-----8----8-------8----8----8----8------------------|
b----------------------------------------------------|
g-5/7---7-----5/7----7-----7----7--------------------|
d---------------------------------------11-11---7~---|
a---------------------------------------9--9----5~---|
D---------------------------------------9--9----5~---|

Verses

Guitar 1 - Jim

e-2-2-2----|
b-3-3-3----|
g-4-3-2----|  -preverse strum each chord once
d----------|  -verse strum throughout
a----------|
D----------|

Guitar 2 - Paul

e-----------------------------------------|
b-7788101088101011111---------------------|
g-----------------------7-77--------------|
d-----------------------------7877--------|
a---------------------88-8----------------|
D---------------------------87----0000----|

Chorus

Guitar 1 - Jim

e---------------------------------------------------------|
b------------------------------10---10--------------------|
g-1111111-9999-1111111-9-9-9-9----9----111111111-999999---|
d-x-x-x-x-xxxx-x-x-x-x-x-x-x-x---------x-x-x-x-x-xxxxxx---|
a-9-9-9-9-9999-9-9-9-9-9-9-9-9---------9-9-9-9-9-777777---|
D---------------------------------------------------------|

Guitar 2 - Paul

e-14141414-12121212-101010-9-9-9--101010-9-9-9---------------------------------|
b-12121212-12121212-121212-121212-121212-121212----7-77-77-7-5--7-77-77-7-5----|
g--------------------------------------------------7-77-77-7-6--7-77-77-7-6----|
d--------------------------------------------------x-xx-xx-x-x--x-xx-xx-x-x----|
a--------------------------------------------------9-99-99-9-7--x-xx-xx-x-7----|
D---------------------------------------------------------------7-77-77-7------|

Post Chorus

Guitar 1 - Jim

e-2-2-2---|
b-3-3-3---|
g-4-3-2---|
d---------|
a---------|
D---------|

Guitar 2 - Paul

e-----5-----6-------------|
b-7-------------7----3----|
g-------------------------|
d-------------------------|
a-------------------------|
D-------------------------|

Interlude

Guitar 1 - Jim

e--------------------10-9---|
b---------------------------|
g-4-444-6-666---------------|
d-4-444-6-666--2-4-0~-------|
a-2-222-4-444--2-4-0~-------|
D--------------2-4-0~-------|

Guitar 2 - Paul

e
b-----------------------------|
g-777777-111111111------------|
d-xxxxxx-x-x-x-x-x--2-4-0~----|
a-555555-9-9-9-9-9--2-4-0~----|
D-------------------2-4-0~----|

Outro

Guitar 1 - Jim

e-1717171717-15151515-14141414-151515-----------------|
b----------------------------------------1717171717---|
g-----------------------------------------------------|
d-----------------------------------------------------|
a-----------------------------------------------------|
D-----------------------------------------------------|

Guitar 2 - Paul

e-----8----8-------8----8----8----8-------------------------|
b-----------------------------------------------------------|
g-5/7---7-----5/7----7-----7----7---------------------------|
d---------------------------------------9--9--5~~-5-7-(0)---|
a---------------------------------------9--9--5~~-5-7-(0)---| - end on (0)
D---------------------------------------9--9--5~~-5-7-(0)---|
Suggest correction
Give kudos to tab author, rate the tab!
1 2 3 4 5
comments
print report bad tab
guest
You may want to rate the tab now too:
select rating
Wanna post a correction for this tab? Suggest correction