Oops, an error
Loading. Please wait.

Light Burns Clear Tab

version 2
version 2

Whole song

341 views 1 this week
no commentswrite comment
1 2 3 4 5
3 more votes to show rating
add to favorites
launch autoscroll
font size
0
reset
how to read this tab
guitar tuner
Autoscroll
slow
fast
+/-
esc
set tempo
stop
Help us to improve Ultimate-Guitar.com Take our survey!
×
Author
Difficulty
intermediate
Sparta - Light Burns Clear

Intro Guitar One
E |-------------------14-14-14-12-------|-------------------------------------|
B |-15-15-15-14-14-14-------------14-12-|-15-15-15-14-14-14-12-12-12--9--9-10-|
G |-------------------------------------|-------------------------------------|
D |-------------------------------------|-------------------------------------|
A |-------------------------------------|-------------------------------------|
E |-------------------------------------|-------------------------------------|
				   3x				[Last Time]

Intro Guitar Two
E |--2--------2--------0----------------|--2--------2--------0----------------|
B |-----2--------2--------2-------------|-----2--------2--------2-------------|
G |--------2--------2--------2--0--2--0-|--------2--------2--------2--1--1--2-|
D |-------------------------------------|-------------------------------------|
A |-------------------------------------|-------------------------------------|
E |-------------------------------------|-------------------------------------|
				   3x				[Last Time]

E |---------------------------------------------|
B |---------------------------------------------|
G |-9--9-9-9-9--7--7-7-7-7--4--4-4-4-4----------|
D |-------------------------------------2--2--2-|
A |-7--7-7-7-7--5--5-5-5-5--2--2-2-2-2--0--0--0-|
E |---------------------------------------------|
						4x

	E |---------------------------------------------|
	B |---------------------------------------------|
	G |-9--9-9-9-9--9--9-9-9-9--9--9-9-9-9--9--9--9-|
	D |---------------------------------------------|
	A |-7--7-7-7-7--7--7-7-7-7--7--7-7-7-7--7--7--7-|
	E |---------------------------------------------|

	E |----------------------------------------------------------------|
	B |----------------------------------------------------------------|
	G |-9/11-11-11-11-11--11--11-11-11-11--11--11-11-11-11--11--11--11-|
	D |----------------------------------------------------------------|
	A |-7/9---9--9--9--9---9---9--9--9--9---9---9--9--9--9---9---9---9-|
	E |----------------------------------------------------------------|

	E |--------------------------------------------------|
	B |--------------------------------------------------|
	G |-11/9--9-9-9-9-9--9--9-9-9-9--9--9-9-9-9--9--9--9-|
	D |--------------------------------------------------|
	A |--9/7--7-7-7-7-7--7--7-7-7-7--7--7-7-7-7--7--7--7-|
	E |--------------------------------------------------|

	E |-----------------------------------------------------------|
	B |-----------------------------------------------------------|
	G |-9/11-11-11-11-11-11--11--11-11-11-11--11--11-11-11/14--14-|
	D |-----------------------------------------------------------|
	A |-7/9---9--9--9--9--9---9---9--9--9--9---9---9--9--9/12--12-|
	E |-----------------------------------------------------------|

	  [These Four Parts 3x]

E |---------------------------------------------|
B |---------------------------------------------|
G |----------6--6-6-6-6--4--4-4-4-4-------------|
D |-2--4--6--------------------------2--2-2-2-2-|
A |-0--2--4--4--4-4-4-4--2--2-2-2-2--0--0-0-0-0-|
E |---------------------------------------------|
					 4x

	E |---------------------------------------------|
	B |---------------------------------------------|
	G |-9--9-9-9-9--9--9-9-9-9--9--9-9-9-9--9--9--9-|
	D |---------------------------------------------|
	A |-7--7-7-7-7--7--7-7-7-7--7--7-7-7-7--7--7--7-|
	E |---------------------------------------------|

	E |----------------------------------------------------------------|
	B |----------------------------------------------------------------|
	G |-9/11-11-11-11-11--11--11-11-11-11--11--11-11-11-11--11--11--11-|
	D |----------------------------------------------------------------|
	A |-7/9---9--9--9--9---9---9--9--9--9---9---9--9--9--9---9---9---9-|
	E |----------------------------------------------------------------|

	E |--------------------------------------------------|
	B |--------------------------------------------------|
	G |-11/9--9-9-9-9-9--9--9-9-9-9--9--9-9-9-9--9--9--9-|
	D |--------------------------------------------------|
	A |--9/7--7-7-7-7-7--7--7-7-7-7--7--7-7-7-7--7--7--7-|
	E |--------------------------------------------------|

	E |-----------------------------------------------------------|
	B |-----------------------------------------------------------|
	G |-9/11-11-11-11-11-11--11--11-11-11-11--11--11-11-11/14--14-|
	D |-----------------------------------------------------------|
	A |-7/9---9--9--9--9--9---9---9--9--9--9---9---9--9--9/12--12-|
	E |-----------------------------------------------------------|

	  [These Four Parts 3x]

E |---------------------------------------------|
B |---------------------------------------------|
G |----------6--6-6-6-6--4--4-4-4-4-------------|
D |-2--4--6--------------------------2--2-2-2-2-|
A |-0--2--4--4--4-4-4-4--2--2-2-2-2--0--0-0-0-0-|
E |---------------------------------------------|
					 4x

Intro Guitar One
E |-------------------14-14-14-12-------|-------------------------------------|
B |-15-15-15-14-14-14-------------14-12-|-15-15-15-14-14-14-12-12-12--9--9-10-|
G |-------------------------------------|-------------------------------------|
D |-------------------------------------|-------------------------------------|
A |-------------------------------------|-------------------------------------|
E |-------------------------------------|-------------------------------------|
				   3x				[Last Time]

Intro Guitar Two
E |--2--------2--------0----------------|--2--------2--------0----------------|
B |-----2--------2--------2-------------|-----2--------2--------2-------------|
G |--------2--------2--------2--0--2--0-|--------2--------2--------2--1--1--2-|
D |-------------------------------------|-------------------------------------|
A |-------------------------------------|-------------------------------------|
E |-------------------------------------|-------------------------------------|
				   3x				[Last Time]

  [Loop The Intro 2x]

E |---------------------1---------------1--------------|
B |---------------------3---------------3--------------|
G |---------------------2---------------2--------------|
D |-4--4-4-4--5--5-5-5--4--2p0-2p0-2p0--4--2p0-2p0-2p0-|
A |-4--4-4-4--5--5-5-5--0---------------0--------------|
E |-2--2-2-2--3--3-3-3---------------------------------|

E |---------------------1--------------|
B |---------------------3--------------|
G |---------------------2--------------|
D |-4--4-4-4--5--5-5-5--4--2p0-2p0-2p0-|
A |-4--4-4-4--5--5-5-5--0--------------|
E |-2--2-2-2--3--3-3-3-----------------|

E |---------------------------------------------|
B |---------------------------------------------|
G |----------6--6-6-6-6--4--4-4-4-4-------------|
D |-2--4--6--------------------------2--2-2-2-2-|
A |-0--2--4--4--4-4-4-4--2--2-2-2-2--0--0-0-0-0-|
E |---------------------------------------------|
					 8x

E |---------------------1---------------1--------------|
B |---------------------3---------------3--------------|
G |---------------------2---------------2--------------|
D |-4--4-4-4--5--5-5-5--4--2p0-2p0-2p0--4--2p0-2p0-2p0-|
A |-4--4-4-4--5--5-5-5--0---------------0--------------|
E |-2--2-2-2--3--3-3-3---------------------------------|
						4x

E |-1---------------1--------------|
B |-3---------------3--------------|
G |-2---------------2--------------|
D |-4--2p0-2p0-2p0--4--2p0-2p0-2p0-|
A |-0---------------0--------------|
E |--------------------------------|
				2x

Intro Guitar One
E |-------------------14-14-14-12-------|-------------------------------------|
B |-15-15-15-14-14-14-------------14-12-|-15-15-15-14-14-14-12-12-12--9--9-10-|
G |-------------------------------------|-------------------------------------|
D |-------------------------------------|-------------------------------------|
A |-------------------------------------|-------------------------------------|
E |-------------------------------------|-------------------------------------|
				   3x				[Last Time]

Intro Guitar Two
E |--2--------2--------0----------------|--2--------2--------0----------------|
B |-----2--------2--------2-------------|-----2--------2--------2-------------|
G |--------2--------2--------2--0--2--0-|--------2--------2--------2--1--1--2-|
D |-------------------------------------|-------------------------------------|
A |-------------------------------------|-------------------------------------|
E |-------------------------------------|-------------------------------------|
				   3x				[Last Time]
Suggest correction
Give kudos to tab author, rate the tab!
1 2 3 4 5
comments
print report bad tab
guest
You may want to rate the tab now too:
select rating
Wanna post a correction for this tab? Suggest correction