Oops, an error
Loading. Please wait.

Most Vicious Crime Tab

version 1
version 1

Whole song

884 views 1 this week
no commentswrite comment
1 2 3 4 5
please rate
add to favorites
launch autoscroll
font size
0
reset
how to read this tab
guitar tuner
Tab Pro tools
  • play this tab
  • loop segment
  • change instrument
  • show fretboard
  • metronome
Autoscroll
slow
fast
+/-
esc
set tempo
stop
Difficulty
novice
Tabbed by:Godfrey
Email:godfrey_patrick@hotmail.com

Tuning:standard

     I was born into this world......
e|---------------------------------------------------------------------------|
B|---------------------------------------------------------------------------|
G|---7777--77777-77777-77777-------------------------------------------------|
D|---7777--77777-77777-77777-------------------------------------------------|
A|---5555--55555-55555-55555-------------------------------------------------|
E|---------------------------------------------------------------------------|


 but  oh         i did it to slow
e|---------------------------------------------------------------------------|
B|---------------------------------------------------------------------------|
G|----5555--55555-55555-55555------------------------------------------------|
D|----5555--55555-55555-55555------------------------------------------------|
A|----3333--33333-33333-33333------------------------------------------------|
E|---------------------------------------------------------------------------|

    I walked the...       I finished it...
e|---------------------------------------------------------------------------|
B|---------------------------------------------------------------------------|
G|---7777--77777-77777-77777-------------------------------------------------|
D|---7777--77777-77777-77777-------------------------------------------------|
A|---5555--55555-55555-55555-------------------------------------------------|
E|---------------------------------------------------------------------------|

    
But   oh its not enough for  you
e|---------------------------------------------------------------------------|
B|---------------------------------------------------------------------------|
G|----5555--55555-55555-55555------------------------------------------------|
D|----5555--55555-55555-55555-----------12-12-12-12h14p12--------------------|
A|----3333--33333-33333-33333------------------------------------------------|
E|---------------------------------------------------------------------------|


    I'll Steal you cries
e|---------------------------------------------------------------------------|
B|--------------------------------------------------------------------------|
G|--12-12-1212--12-1212---12-12-1212121212----------------------------------|
D|-------------------------------------------------------------------------|
A|--10-10-1010--10-1010---10-10-1010101010----------------------------------|
E|---------------------------------------------------------------------------|


take your life                 and run it all aground
e|---------------------------------------------------------------------------|
B|---------------------------------------------------------------------------|
G|-----------10101010101010101010101010101010-----------12-12-1212-----------|
D|-----------10101010101010101010101010101010--------------------------------|
A|-----------8888888888888888888888888888888------------10-10-1010--etc------|
E|---------------------------------------------------------------------------|


       outro on piano on guitar
    I was born             but  oh
e|---------------------------------------------------------------------------|
B|---------------------------------------------------------------------------|
G|-------7------7-----7-----7-----5----5-----5-----5-------------------------|
D|-------7------7-----7-----7-----5----5-----5-----5-------------------------|
A|---5-------5-----5-----5------3----3----3-----3-------repeatuntilend-------|
E|---------------------------------------------------------------------------|
comments
We did not receive enough feedback on this tab! Please rate:
print report bad tab
1 2 3 4 5
I want to post or [tab]
guest
You may want to rate the tab now too:
select rating
Please do not post tabs as comments. Select "correction" instead!