Oops, an error
Loading. Please wait.

Most Vicious Crime Tab

version 2
version 2

Whole song

975 views 1 this week
no commentswrite comment
1 2 3 4 5
please rate
add to favorites
launch autoscroll
font size
0
reset
how to read this tab
guitar tuner
Tab Pro tools
  • play this tab
  • loop segment
  • change instrument
  • show fretboard
  • metronome
×
Best way to learn
"Most Vicious Crime"
Autoscroll
slow
fast
+/-
esc
set tempo
stop
Contributor
Difficulty
Capo
intermediate
4th fret
Capo on 4th fret

INTRO&RIFF-
e---------------------------------------------|
B----1----------1----------1----------1-------|
G--2----------2----------2----------2---------|
D------2-2-2------2-2-2------2-2-2------2-2-2-|
A-0-0-0-0-0-00-0-0-0-0-0----------------------|
E-----------------------3-3-3-3-3-33-3-3-3-3-3|

e---------------------------------------------|
B----1----------1----------1-/9^10^9----------|
G--2----------2----------2--------------------|
D------2-2-2------2-2-2-----------------------|
A-----------------------0-0-0-----------------|
E-2-2-2-2-2-22-2-2-2-2-2----------------------|x6

2nd GUITAR(no capo)
e---------------------------------------------|
B---------------------------------------------|
G-9-9-9-9-8-8-8-8-9-9-9-9-8-8-8-8-11-11-11-11-|
D---------------------------------------------|
A---------------------------------------------|
E---------------------------------------------|

e----------------------------------------------|
B----------------------------------------------|
G-8-8-8-8/-11-11-11-11-11-11--9-9-9-9-8-8-8-8--|
D----------------------------------------------|
A----------------------------------------------|
E----------------------------------------------|

e----------------------------------------------|
B----------------------------------------------|
G-9-9-9-9-8-8-8-8/-6---------------------------|
D----------------------------------------------|
A----------------------------------------------|
E----------------------------------------------|
With echoe.
RIFF-
e---------------------------------------------|
B----1----------1----------1----------1-------|
G--2----------2----------2----------2---------|
D------2-2-2------2-2-2------2-2-2------2-2-2-|
A-0-0-0-0-0-00-0-0-0-0-0----------------------|
E-----------------------3-3-3-3-3-33-3-3-3-3-3|

e---------------------------------------------|
B----1----------1----------1-/9^10^9----------|
G--2----------2----------2--------------------|
D------2-2-2------2-2-2-----------------------|
A-----------------------0-0-0-----------------|
E-2-2-2-2-2-22-2-2-2-2-2----------------------|

2nd GUITAR(no capo)
e---------------------------------------------|
B---------------------------------------------|
G-9-9-9-9-8-8-8-8-9-9-9-9-8-8-8-8-11-11-11-11-|
D---------------------------------------------|
A---------------------------------------------|
E---------------------------------------------|

e-------------------------------------------------|
B-------------------------------------------------|
G-11-11-11-11-11-11-11-11-11-11--9-9-9-9-8-8-8-8--|
D-------------------------------------------------|
A-------------------------------------------------|
E-------------------------------------------------|

e----------------------------------------------|
B----------------------------------------------|
G-9-9-9-9-8-8-8-8/-6---------------------------|
D----------------------------------------------|
A----------------------------------------------|
E----------------------------------------------|

CHORUS-
e----------------------------------|
B-55755555557555557777777777777777-|
G-66666666666666668888888888888888-|
D-66666666666666669999999999999999-|
A-44444444444444449999999999999999-|
E-----------------7777777777777777-|x2

e---------------------------------|
B---------------------------------|
G-11111111111111119-9-9-9-9-9-9-9-|
D-1111111111111111111111111111111-|
A-9-9-9-9-9-9-9-9-9-9-9-9-9-9-9-9-|
E-9-9-9-9-9-9-9-9-9-9-9-9-9-9-9-9-|

e---------------------------------|
B-9999999999999999999999999999999-|
G-9999999999999999999999999999999-|
D-9999999999999999999999999999999-|
A-7777777777777777777777777777777-|
E-7777777777777777777777777777777-|

e----------------------------------|
B-55755555557555557777777777777777-|
G-66666666666666668888888888888888-|
D-66666666666666669999999999999999-|
A-44444444444444449999999999999999-|
E-----------------7777777777777777-|x2

e---------------------------------|
B---------------------------------|
G-11111111111111119-9-9-9-9-9-9-9-|
D-1111111111111111111111111111111-|
A-9-9-9-9-9-9-9-9-9-9-9-9-9-9-9-9-|
E-9-9-9-9-9-9-9-9-9-9-9-9-9-9-9-9-|

e---------------------------------|
B-9999999999999999999999999999999-|
G-9999999999999999999999999999999-|
D-9999999999999999999999999999999-|
A-7777777777777777777777777777777-|
E-7777777777777777777777777777777-|

e------------------|
B------------------|
G-8888888888888888-|
D-8888888888888888-|
A-6666666666666666-|
E------------------|
Do the whole chorus twice.

RIFF-
e---------------------------------------------|
B----1----------1----------1----------1-------|
G--2----------2----------2----------2---------|
D------2-2-2------2-2-2------2-2-2------2-2-2-|
A-0-0-0-0-0-00-0-0-0-0-0----------------------|
E-----------------------3-3-3-3-3-33-3-3-3-3-3|

e---------------------------------------------|
B----1----------1----------1-/9^10^9----------|
G--2----------2----------2--------------------|
D------2-2-2------2-2-2-----------------------|
A-----------------------0-0-0-----------------|
E-2-2-2-2-2-22-2-2-2-2-2----------------------|x2

2nd GUITAR(no capo)
e------------------------|
B------------------------|
G-6666--------------6666-|
D-6666--9999--4444--6666-|
A-4444--9999--4444--4444-|
E-------7777--6666-------|
You'll know when that comes in.
OUTRO-(piano)
e---------------------------------|
B-9-9-9-9-9-9-9-9-7-7-7-7-7-7-7-7-|
G-9-9-9-9-9-9-9-9-8-8-8-8-8-8-8-8-|
D-11111111111111119-9-9-9-9-9-9-9-|
A-11111111111111119-9-9-9-9-9-9-9-|
E-9-9-9-9-9-9-9-9-7-7-7-7-7-7-7-7-|x2

e-------------------------------|
B-10101010101010109-9-9-9-9-9-9-|
G-111111119-9-9-9-9-9-9-9-9-9-9-|
D-11111111111111119-9-9-9-9-9-9-|
A-9-9-9-9-9-9-9-9-7-7-7-7-7-7-7-|
E--------9-------9-----7-------9|

e-------------------------------|
B-10101010101010109-9-9-9-9-9-9-|
G-111111119-9-9-9-9-9-9-9-9-9-9-|
D-11111111111111119-9-9-9-9-9-9-|
A-9-9-9-9-9-9-9-9-7-7-7-7-7-7-7-|
E--------9-------9-----7-------7|

e----|
B-7~-|
G-8~-|
D-8~-|
A-6~-|
E----|
comments
We did not receive enough feedback on this tab! Please rate:
print report bad tab
1 2 3 4 5
I want to post or [tab]
guest
You may want to rate the tab now too:
select rating
Please do not post tabs as comments. Select "correction" instead!