Oops, an error
Loading. Please wait.

Most Vicious Crime Tab

version 3
version 3

Whole song

760 views 1 this week
no commentswrite comment
1 2 3 4 5
3 more votes to show rating
add to favorites
launch autoscroll
font size
0
reset
how to read this tab
guitar tuner
Autoscroll
slow
fast
+/-
esc
set tempo
stop
Help us to improve Ultimate-Guitar.com Take our survey!
×
Author
Difficulty
novice
Artist:     Sparta
Album:      Threes
Song:       The Most Vicious Crime
Tab by:     Mike Tucker

**see note at the bottom

Intro
Gtr I
E|--------------------------------4b----------------|
B|----5-------------------------5-------------------|
G|--6--------------alt-ending--6--------------------|
D|------6-6-6---------------------------------------|
A|--------------------------------------------------|
E|--------------------------------------------------|

Plays with bass

around 1:00 in this plays once

Gtr II
E|-----------------------------------------------|
B|-----------------------------------------------|
G|--99999999-88888888-99999999-88888888----------|
D|-----------------------------------------------|
A|-----------------------------------------------|
E|-----------------------------------------------|

E|-----------------------------------------------|
B|--77777777------------77777777-----------------|
G|------------88888888-----------88888888--------|
D|-----------------------------------------------|
A|-----------------------------------------------|
E|-----------------------------------------------|

Gtr II
E|------------------------------------------------|
B|------------------------------------------------|
G|--99999999-88888888-99999999-88888888--6~-------|
D|------------------------------------------------|
A|------------------------------------------------|
E|------------------------------------------------|


then a little bass solo..
then repeat the Gtr II part w/ effect

Chorus
Gtr I & II

here's the chords ( strum around 12 times each)
     C#m     B*
E|---4-------2--------------------------------------|
B|---5-------4--------------------------------------|
G|---6-------x--------------------------------------|
D|---6-------4--------------------------------------|
A|---4-------2--------------------------------------|
E|--------------------------------------------------|

play that a few times


then ...
Gtr I                 **Gtr II jumps between the chords kindof
     F#m*    Em*                 D#
E|---9--------7-------------------6-----------------|
B|---9--------7-------------------6-----------------|
G|---11-------9--------ends-with--8-----------------|
D|---11-------9-------------------8-----------------|
A|---9--------7-------------------6-----------------|
E|--------------------------------------------------|

then go back to the intro
Gtr I same
Gtr I
E|--------------------------------4b-----------|
B|----5-------------------------5--------------|
G|--6--------------alt-ending--6---------------|
D|------6-6-6----------------------------------|
A|---------------------------------------------|
E|---------------------------------------------|

Gtr II comes in with some distorted chords (same as chorus)
     C#m     B*
E|---4-------2--------------------------------------|
B|---5-------4--------------------------------------|
G|---6-------x--------------------------------------|
D|---6-------4--------------------------------------|
A|---4-------2--------------------------------------|
E|--------------------------------------------------|

The end of the song switches to Piano, and just plays the same chords that
are played during the whole song. Jim plays the verse and chorus. Sounds good
if you just play soft on the guitar too.


note: during the song its hard to make out Gtr II, I'm pretty sure It just follows the 
line during most of the song.
Suggest correction
Give kudos to tab author, rate the tab!
1 2 3 4 5
comments
print report bad tab
guest
You may want to rate the tab now too:
select rating
Wanna post a correction for this tab? Suggest correction