Oops, an error
Loading. Please wait.

Most Vicious Crime Tab

version 4
version 4

Whole song

669 views 1 this week
no commentswrite comment
1 2 3 4 5
please rate
add to favorites
launch autoscroll
font size
0
reset
how to read this tab
guitar tuner
Autoscroll
slow
fast
+/-
esc
set tempo
stop
Help us to improve Ultimate-Guitar.com Take our survey!
×
Difficulty
novice
SONG NAME - Band Name
-------------------------------------------------------------------------------
Tabbed by:Godfrey
Email:godfrey_patrick@hotmail.com

Tuning:standard
Guitar once through by itself then "Alone...it could be alright"

e|---------------------------------------------------------------------------|
B|----------6----------------------------6-----------------------------------|
G|-----7---------------------------7-----------------------------------------|
D|--7------------7----7----7----7-----------------7---7---7------------------|
A|--5----5----5----5----5-------5-----5--------5---5---5---------------------|
E|---------------------------------------------------------------------------|

e|---------------------------------------------------------------------------|
B|------3-----6----------------------3-----6---------------------------------|
G|-----------------5-----5---5-------------------5---5----5------------------|
D|--5-----------------------------5------------------------------------------|
A|--3------3----3-----3----3------3-----3-----3----3----3--------------------|
E|---------------------------------------------------------------------------|

e|----------1----------------------------1---------------------------------------|
B|-----3---------------------------3---------------------------------------------|
G|----------------3----3----3-----------------3---3-----3------------------------|
D|--3---------------------------3------------------------------------------------|
A|--1----1----1-----1----1------1----1------1---1----1---------------------------|
E|-------------------------------------------------------------------------------|

e|---------------------------------------------------------------------------|
B|-----------6------10~------------------------------------------------------|
G|------7--------------------------------------------------------------------|
D|--7------------------------------------------------------------------------|
A|--5-----5----5-------------------------------------------------------------|
E|---------------------------------------------------------------------------|

e|-----------------willtabtherestsoon--|
B|-------------------------------------|
G|-------------------------------------|
D|-------------------------------------|
A|-------------------------------------|
E|-------------------------------------|

| /  slide up
| \  slide down
| h  hammer-on
| p  pull-off
| ~  vibrato
| +  harmonic
| x  Mute note
===============================================================================
Suggest correction
Give kudos to tab author, rate the tab!
1 2 3 4 5
comments
print report bad tab
guest
You may want to rate the tab now too:
select rating
Please do not post tabs as comments. Select "correction" instead!