Oops, an error
Loading. Please wait.

Red Alibi Tab

version 3
version 3

Whole song

Interactive

1,577 views 1 this week
no commentswrite comment
1 2 3 4 5
1 last vote to show rating
add to favorites
launch autoscroll
font size
0
reset
how to read this tab
guitar tuner
Autoscroll
slow
fast
+/-
esc
set tempo
stop
Help us to improve Ultimate-Guitar.com Take our survey!
×
Author
Standard Tuning, great song by the way.

Intro Riff (Guitar 1)
e|------------------------------------------|
B|------------------------------------------|
G|------------------------------------------|
D|-44--x44-x4/7-\4-0--77--x77---------------|
A|-55--x55-x----------77--x77---------------|
E|-33--x33-x----------55--x55-5-/7-7--------|

Intro Riff (Guitar 2) Starts at about 00:10
e|--------------|
B|--------------|
G|--------------|
D|xx------------|
A|xx------------|
E|xx-5-/7-7-----|

then
e|------------------------------------------|
B|------------------------------------------|
G|------------------------------------------|
D|--44--x44-x4=--x77--x77--x----------------|
A|--55--x55-x5=--x77--x77--x----------------|
E|--33--x33-x3=--x55--x55--x5-/7-7----------|

Next comes in the little intro solo by Guitar 2

e|------------------------------------------|
B|------------------------------------------|
G|-999999\777777/141414141414141414141414---|
D|-xxxxxx-xxxxxx--x-x-x-x-x-x-x-x-x-x-x-x---|
A|-777777\555555/121212121212121212121212---|
E|------------------------------------------|

e|-----------------------------------------------|
B|-----------------------------------------------|
G|161616161616/181818/191919/2121212121212121----|
D|-x-x-x-x-x-x--x-x-x--x-x-x--x-x-x-x-x-x-x-x----|
A|141414141414/161616/171717/1919191919191919----|
E|-----------------------------------------------|

Verse
e|------------------------------------------|
B|------------------------------------------|
G|------------------------------------------|
D|--4---4---4---4---7---7---9---9-----------|
A|-5-5-5-5-5-5-5-5-7-7-7-7-9-9-9-9----------|
E|0---0---3---3---5---5---7---7-------------|

Prechorus
e|--------------------------|
B|--------------------------|
G|----------11/12-2-2-x4-4-x|
D|-2-2-x4-4--x--x-2-2-x4-4-x|
A|-2-2-x4-4--9/10-0-0-x2-2-x|
E|-0-0-x2-2-----------------|

Chorus
e|------------------------------------------|
B|------------------------------------------|
G|------------------------------------------|
D|-44--x44-x4/7-\4-0--77--x77---------------|
A|-55--x55-x----------77--x77---------------|
E|-33--x33-x----------55--x55-5-/7-7--------|

Bridge Guitar 1
Riff 1 Riff 2
e|------------------|--|000000000--------------------|
B|------------------|--|000000000--------------------|
G|------------------|--|777777777-11/12--------------|
D|-44444444-22220000|4x|777777777--x--x-777777777----|
A|------------------|--|-----------9/10-000000000----|
E|------------------|--|-----------------------------|

Bridge Guitar 2 (Can be played on Keyboard)
Riff 1 Riff 2
e|-10(tremolo picking)-|-10(tp)-15\14--12(tp)---| NOTE: all "10's" played are
B|-10------------------|-10-----17\16--14-------| tremolo picked
G|---------------------|------------------------|
D|---------------------|------------------------|
A|---------------------|------------------------|
E|---------------------|------------------------|

Structure:
Intro (Gtr. 1-x6)
Verse x4
Prechorus x2
Chorus x6
Bridge (Riff 1 x4 Riff 2 x4)
Chorus x6

And thats it.

By the way...

x-mute note
=-sustain note
/-slide up
\-slide down
Suggest correction
Give kudos to tab author, rate the tab!
1 2 3 4 5
comments
print report bad tab
guest
You may want to rate the tab now too:
select rating
Wanna post a correction for this tab? Suggest correction