Oops, an error
Loading. Please wait.

Red Right Return Straight Into Our Hands Tab

499 views 1 this week
no commentswrite comment
1 2 3 4 5
please rate
add to favorites
launch autoscroll
font size
0
reset
how to read this tab
guitar tuner
Autoscroll
slow
fast
+/-
esc
set tempo
stop
Help us to improve Ultimate-Guitar.com Take our survey!
×
Author
Difficulty
---------------------------------------------------------------------
        SPARTA - RED.RIGHT.RETURN.(STRAIGHT INTO OUR HANDS)
---------------------------------------------------------------------

This is really basic, but i was supprised that no one had tabbed this song yet, so i 
to do it! It's definitely my favorite off of Threes. Hope you like it!

Tuning: standard

(intro and verses)
e|------------------------------------------------------------------|
B|----3---2---------------------------------------------------------|
G|------------4---2---0-2-------0-----------------------------------|
D|------4---4---4---4-----4-2-4---2-4-------------------------------|
A|------------------------------------------------------------------|
E|------------------------------------------------------------------|
"Sails catch any wind that they can..."


(pre-chorus)
e|------------------------------------------------------------------|
B|------------------------------------------------------------------|
G|------------------------------------------------------------------|
D|-------444-----444-----444-0000-2222------------------------------|
A|------------------------------------------------------------------|
E|---0h2-----0h2-----0h2--------------------------------------------|


(chorus)
e|------------------------------------------------------------------|
B|-12-12-12-12--10-10-10-10-----------------------------------------|
G|--------------------------11-11-11-11-11-11-11-11-----------------|
D|------------------------------------------------------------------|
A|------------------------------------------------------------------|
E|------------------------------------------------------------------|
"You're falling straight into our hands..."


(continued through verse)
e|------------------------------------------------------------------|
B|------------------------------------------------------------------|
G|------------------------------------------------------------------|
D|-4-4-4--4-4-4--4-4-4---------4-4-4--4-4-4--0-0--------------------|
A|-----------------------------------------------4------------------|
E|------------------------------------------------------------------|


(verse)
e|------------------------------------------------------------------|
B|----3---2---------------------------------------------------------|
G|------------4---2---0-2-------0-----------------------------------|
D|------4---4---4---4-----4-2-4---2-4-------------------------------|
A|------------------------------------------------------------------|
E|------------------------------------------------------------------|
"Still water hides an undertow..."


(pre-chorus)
e|------------------------------------------------------------------|
B|------------------------------------------------------------------|
G|------------------------------------------------------------------|
D|-------444-----444-----444-0000-2222------------------------------|
A|------------------------------------------------------------------|
E|---0h2-----0h2-----0h2--------------------------------------------|


(chorus)
e|------------------------------------------------------------------|
B|-12-12-12-12--10-10-10-10-----------------------------------------|
G|--------------------------11-11-11-11-11-11-11-11-----------------|
D|------------------------------------------------------------------|
A|------------------------------------------------------------------|
E|------------------------------------------------------------------|
"You're falling straight into our hands..."

e|------------------------------------------------------------------|
B|------------------------------------------------------------------|
G|------------------------------------------------------------------|
D|-------4b-------4b-------4b-----2b--------------------------------|
A|-----------------------------5b-----------------------------------|
E|---0h2-----0h2-----0h2--------------------------------------------|

(solo)
e|-15(x4)-14(x4)-12(x4)-10(x6)-9(x4)-10(x2)-12-14-12-14-12-14-12-14-|(x2)

e|-7-9-10-7-9-10--/15-12(x4)-9(x3)-/15-12(x4)-9(x3)-----------------|

e|-7-9-10-7-9-10--/15-12(x4)-9(x3)-/15-12(x4)-9(x3)--10-9-7-6-------|
"Ohhh..."


(chorus)
e|------------------------------------------------------------------|
B|------------------------------------------------------------------|
G|-4(x8)-2(x)-------------------------------------------------------|
D|------------4(x16)------------------------------------------------|
A|------------------------------------------------------------------|
E|------------------------------------------------------------------|
"You're falling straight into our hands..."


(outro)
e|------------------------------------------------------------------|
B|----3---2---------------------------------------------------------|
G|------------4---2---0-2-------0-----------------------------------|
D|------4---4---4---4-----4-2-4---2-4-------------------------------|
A|------------------------------------------------------------------|
E|------------------------------------------------------------------|
"Sails catch any wind that they can..."

| /  slide up
| \  slide down
| h  hammer-on
| p  pull-off
| b  bend
| +  harmonic
| x  Mute note
======================================================================
Suggest correction
Give kudos to tab author, rate the tab!
1 2 3 4 5
comments
print report bad tab
guest
You may want to rate the tab now too:
select rating
Please do not post tabs as comments. Select "correction" instead!