Oops, an error
Loading. Please wait.

Sans Cosm Tab

1,244 views 1 this week
2 commentsread comments
1 2 3 4 5
worth learning
x 6
add to favorites
launch autoscroll
font size
0
reset
how to read this tab
guitar tuner
Tab Pro tools
  • play this tab
  • loop segment
  • change instrument
  • show fretboard
  • metronome
×
Best way to learn
"Sans Cosm"
Autoscroll
slow
fast
+/-
esc
set tempo
stop
Contributor
intro [CLEAN]
e---------------------------------------------------------------|
G-5-----5-----5-----5-----5---5---4-----4----4-----4----4---4---|
B---4-----4-----4-----4-------------4-----4----4-----4----------|
D-----2-----2-----2-----2---2---2-----2-----2----2-----2--2---2-|
A---------------------------------------------------------------|
E---------------------------------------------------------------|
Played twice

Clean Chords
e------------------------|
B-2------3-------3-------|
G-x------0-------0-------|
D-2------2-------4-------|
A-4------3-------5-------|
E------------------------|

Distorted Chords (figure out the strums yourself)
e-0--0--0--0--0--------|
B-0--0--0--0--0--------|
G-9--9--6--5--7--------|
D-9--9--6--5--7--------|
A-7--6--4--3--5--------|
E----------------------|

During the verses, play the distorted chords sans distortion

CHORUS (Distorted)
e-0--0--0--0--------|
B-0--0--0--0--------|
G-9--9--5--7--------|
D-9--9--5--7--------|
A-7--6--3--5--------|
E-------------------|

BRIDGE (Distorted)
e------------------|
B------------------|
G-4-----6--8-------|
D-4--2--6--8-------|
A-2--2--4--6-------|
E----0-------------|
comments
print report bad tab
2 comments total.
0 reply
dave04 wrote on December 3 2006, 03:06 pm

i submitted my correction tab to this song which was REJECTED by ultimate-gaytar for some reason, so i'll put the corrections in a comment. UG sucks.

intro [CLEAN] (the middle notes were wrong)
e-0-----0-----0-----0-----0---0---------------------------------|
G---------------------------------4-----4----4-----4----4---4---|
B---1-----1-----1-----1-------------1-----1----1-----1----------|
D-----2-----2-----2-----2---2---2-----2-----2----2-----2--2---2-|
A---------------------------------------------------------------|
E---------------------------------------------------------------|
Played twice

Clean Chords (completely wrong, and played broken)
e-------------------0-------0-----|
B---2-----2-----2-----------------|
G---------------------------------|
D-----0-----0---------0-------0---|
A-0-----0-----0---3-----3-5-----5-|
E---------------------------------|

Distorted Chords (diminish the G string, not the a string), one wrong chord
e-0--0--0--0--0--------|
B-0--0--0--0--0--------|
G-9--8--x--5--7--------|
D-9--9--5--5--7--------|
A-7--7--5--3--5--------|
E-------3--------------|

During the verses, play the distorted chords sans distortion

CHORUS (Distorted) (there were some unnoted changes on the first chord, you should play the open low E, and i think the last two chords are different)
e-0-0--0-0-0--0-------|
B-0-0--0-0-0--0-------|
G-9-11-8-9-x--x-------|
D-9-9--9-9-10-12------|
A-7-7--7-7-10-12------|
E-0-0--0-0-8--10------|

BRIDGE (Distorted), hey, this was right.
e------------------|
B------------------|
G-4-----6--8-------|
D-4--2--6--8-------|
A-2--2--4--6-------|
E----0-------------|

0 reply
dave04 wrote on December 3 2006, 03:06 pm

i submitted my correction tab to this song which was REJECTED by ultimate-gaytar for some reason, so i'll put the corrections in a comment. UG sucks.

intro [CLEAN] (the middle notes were wrong)
e-0-----0-----0-----0-----0---0---------------------------------|
G---------------------------------4-----4----4-----4----4---4---|
B---1-----1-----1-----1-------------1-----1----1-----1----------|
D-----2-----2-----2-----2---2---2-----2-----2----2-----2--2---2-|
A---------------------------------------------------------------|
E---------------------------------------------------------------|
Played twice

Clean Chords (completely wrong, and played broken)
e-------------------0-------0-----|
B---2-----2-----2-----------------|
G---------------------------------|
D-----0-----0---------0-------0---|
A-0-----0-----0---3-----3-5-----5-|
E---------------------------------|

Distorted Chords (diminish the G string, not the a string), one wrong chord
e-0--0--0--0--0--------|
B-0--0--0--0--0--------|
G-9--8--x--5--7--------|
D-9--9--5--5--7--------|
A-7--7--5--3--5--------|
E-------3--------------|

During the verses, play the distorted chords sans distortion

CHORUS (Distorted) (there were some unnoted changes on the first chord, you should play the open low E, and i think the last two chords are different)
e-0-0--0-0-0--0-------|
B-0-0--0-0-0--0-------|
G-9-11-8-9-x--x-------|
D-9-9--9-9-10-12------|
A-7-7--7-7-10-12------|
E-0-0--0-0-8--10------|

BRIDGE (Distorted), hey, this was right.
e------------------|
B------------------|
G-4-----6--8-------|
D-4--2--6--8-------|
A-2--2--4--6-------|
E----0-------------|

I want to post or [tab]
guest
You may want to rate the tab now too:
select rating
Please do not post tabs as comments. Select "correction" instead!