Oops, an error
Loading. Please wait.

Splinters Bass Tab

4 views 1 this week
no commentswrite comment
1 2 3 4 5
3 more votes to show rating
add to favorites
launch autoscroll
font size
0
reset
guitar tuner
Autoscroll
slow
fast
+/-
esc
set tempo
stop
Help us to improve Ultimate-Guitar.com Take our survey!
×
Author
Difficulty
intermediate
Title: Splinters
Artist: Sparta
Album: Porcelain

Standard tuning

Note: I was thinking in 6 time, so I put the counts below the bars.
(Feel free to ignore them and go by ear.)

[Intro]
G|------------|------------|
D|----rest----|------------|
A|-----x3-----|------------|
E|------------|000000000000|
 |1+2+3+4+5+6+|1+2+3+4+5+6+|

[Pre-Verse]
G|------------|------------|------------|------------|
D|------------|------------|------------|------------| repeat
A|------------|------------|------------|------------|   x2
E|0000--------|3333--------|88-8-88-8-8-|77-7-77-7-7-|
 |1+2+3+4+5+6+|1+2+3+4+5+6+|1+2+3+4+5+6+|1+2+3+4+5+6+|

[Verse]
G|------------|------------|------------|------------|
D|--------7-9-|------------|--------5-4-|------------| repeat
A|77-7-77-----|------------|55-5-55-----|--------5-6-|   x4
E|------------|77-7-77-7-7-|------------|55-5-55-----|
 |1+2+3+4+5+6+|1+2+3+4+5+6+|1+2+3+4+5+6+|1+2+3+4+5+6+|

Repeat Pre-Verse

Repeat Verse

[Chorus]
G|------------|------------|------------|------------|
D|------------|------------|------------|------------| repeat
A|------------|888888888888|------------|------------|   x4
E|000000000000|------------|888888888888|777777555555|
 |1+2+3+4+5+6+|1+2+3+4+5+6+|1+2+3+4+5+6+|1+2+3+4+5+6+|

Repeat Verse except last measure
Last measure:
G|------------|
D|------------|
A|000000000000|
E|------------|
 |1+2+3+4+5+6+|

Repeat Chorus

[Breakdown]
G|------------|------------|------------|------------|
D|------------|------------|------------|------------| repeat
A|------------|8888888-----|------------|------------|   x2
E|0000000-----|------------|8888888-----|777777555555|
 |1+2+3+4+5+6+|1+2+3+4+5+6+|1+2+3+4+5+6+|1+2+3+4+5+6+|

Repeat Chorus

[Outro]
G|------------|------------|
D|------99999-|------------| repeat
A|------------|------77777-|   x4
E|0-00-0------|0-00-0------|
 |1+2+3+4+5+6+|1+2+3+4+5+6+|

G|------------|
D|------------|
A|7777777-----|
E|------------|
 |1+2+3+4+5+6+|
Suggest correction
Give kudos to tab author, rate the tab!
1 2 3 4 5
comments
print report bad tab
guest
You may want to rate the tab now too:
select rating
Wanna post a correction for this tab? Suggest correction