Oops, an error
Loading. Please wait.

Syncope tab

by Sparta
1,662 views 6 this week
1 commentread comment
1 2 3 4 5
x 4
add to favorites
×
Save as Personal and add changes to this tab that will be seen only by you. Learn more ›
×
You can save this tab as Personal to edit and correct it or add notes. All changes will be seen only by you. Learn more »
launch autoscroll
font size
0
reset
how to read this tab
guitar tuner
edit
Autoscroll
slow
fast
+/-
esc
set tempo
stop
Album: Porcelain
Song: Syncope
Tuning:Standard
Tabber:Tom
Email:flemingoboy@adelphia.net

I used the basis of another Syncope tab I saw for this one.
Played with a shitload of reverb, delay, and distortion.

Line One
|-------------12----12/14-(delays so it sounds like --|
|-------10------------------your sliding up twice)---|
|----11----11----11----------------------------------|
|----------------------------------------------------|
|----------------------------------------------------|
|-10-------------------------------------------------|

Line Two 
|------------------------|
|------10----10----10----|
|---11----11----11----11-|
|------------------------|
|-9----------------------|
|------------------------|

Line Three
|------9---9---9-9/10-|
|---------------------|
|---------------------|
|----9---9---9--------|
|---------------------|
|-\7------------------|

Line Four         1st     2nd
|------9----9----|10----|-10~-|
|---10---10---10-|---10-|-----|
|----------------|------|-----|
|----------------|------|-----|
|-10-------------|------|-----|
|----------------|------|-----|

End on
|-----|
|-----|
|-----|
|-0~--|
|-0~--|
|-10~-|

Order
Line One (1x)
Line Two (1x)
Line One (1x)
Line Two (1x)
Line Three (1x)
Line Four (1x)
Line Three (1x)
Line Four (1x)
Repeat all of this
End On the chord above

            
            
Suggest correction
Creating personal tab
Creating personal tab
You can edit any tab online and save it as your Personal.

You can edit, replace or remove any tab part or add personal notes – all changes will be seen only by you.

Personal tabs can be accessed anytime from any device, even offline.
Learn more »
comments
print report bad tab
1 comment total.
0 reply
KwikKopy 40 Jan 27, 2008 10:50 AM

Good tab.

guest
You may want to rate the tab now too:
select rating
Wanna post a correction for this tab? Suggest correction