Oops, an error
Loading. Please wait.

Taking Back Control Bass Tab

1,552 views 1 this week
4 commentsread comments
1 2 3 4 5
accurate
x 4
add to favorites
launch autoscroll
font size
0
reset
guitar tuner
Autoscroll
slow
fast
+/-
esc
set tempo
stop
Help us to improve Ultimate-Guitar.com Take our survey!
×
Author
Difficulty
Tuning
novice
D A D G B E
so this is my first tab I've ever done in my life so if it's horrible, sorry but no one
one up and its a pretty simple song so i decided that i should, anyways i don't really
to these guys much but I'm pretty sure they in Drop D so yeah D-A-D-G, i use a five 
so i have an extra string in the way haha. here it is.

 Intro/Verse
G|-----------------------------------------------------------------|
D|-----------------------------------------------------------------|
A|-5-5-8-5-5-5-8-5-5-5-8-5-5-5-8-5-3-3-5-3-3-3-5-3-3-3-5-3-1-1-1-1-|
D|-----------------------------------------------------------------| x12

 Chorus
G|-----------------------------------------------------------------|
D|-----------------------------------------------------------------|
A|-----------------------------------------------------------------|
D|-0-0-0-0-2-2-2-2-3-3-3-3/7-7-7-7-5-5-5-5-5-5-5-5-5-5-5-5-5-5-5-5-| x4

 Pause - Guitar and Drums
  Verse - Play Four Times
 Chorus- Play Four Times

 Breakdown
G|------------------------------------------------|
D|------------------------------------------------|
A|-8-7-3-5----------5(barely hear it)-8-7-3-5-----|
D|---------3-5-0~~~~--------------------------3-5-|

G|-------------------------------------------------------------|
D|-------------------------------------------------------------|
A|-------------------------------------------------------------|
D|-0--0-0-0-0-0-0-2--2-2-2-2-2-2-5--5-5-5-5-5-5-3--3-3-3-3-3-3-| x2

G|----------------------------------------------------------------------------------------|
D|----------------------------------------------------------------------------------------|
A|----------------------------------------------------------------------------------------|
D|12--12-12-12-12-12-12-14--14-14-14-14-14-14-17--17-17-17-17-17-17-15--15-15-15-15-15-15-|

 Instead of 15 on the second time, slide straight up to 19 and then strum
 open and let it ring

G|---------------------------------------------------------|
D|---------------------------------------------------------|
A|---------------------------------------------------------|
D|-0-0-0-0-2-2-2-2-3-3-3-3/7-7-7-7-5-5-5-5-5-5-5-5-5-5-5-5-| x4

                                And That's the song, any questions email sports_fan_467@hotmail.com
Suggest correction
comments
print report bad tab
4 comments total. Showing first comments.
0 reply
Heartless Bass 10 wrote on August 29 2007, 10:40 am

big tab man!

0 reply
Heartless Bass 10 wrote on January 17 2008, 10:25 am

really good tab man!

0 reply
rayurrea 62 wrote on September 19 2008, 11:20 pm

congratz!

guest
You may want to rate the tab now too:
select rating
Wanna post a correction for this tab? Suggest correction