Oops, an error
Loading. Please wait.

Taking Back Control Tab

version 1
version 1

Intro

Whole song

775 views 1 this week
4 commentsread comments
1 2 3 4 5
3 more votes to show rating
add to favorites
launch autoscroll
font size
0
reset
how to read this tab
guitar tuner
Autoscroll
slow
fast
+/-
esc
set tempo
stop
Help us to improve Ultimate-Guitar.com Take our survey!
×
Author
1st guitar
e|----------------------------------------------|
B|----------------------------------------------|
G|----------------------------------------------|
D|----------------------------------------------|
A|----5---7-8-----------------------------------| 
D|------------8---6-6---------------------------|   x5

2nd guitar joins in after 1st guitar plays 3 times
e|----------------------------------------------|
B|------6-----10-----6-----10-----5---5---5---5-|
G|----7-----7-----7-----7-----7---7---7---7-----|
D|----------------------------------------------|
A|----------------------------------------------|
D|----------------------------------------------|  x2
Suggest correction
Give kudos to tab author, rate the tab!
1 2 3 4 5
comments
print report bad tab
4 comments total. Showing first comments.
0 reply
tucker42087 94 Nov 29, 2006 09:10 PM

Should be in standard tuning the way you tabbed it. You have it in Dropped D atm.

0 reply
tucker42087 94 Nov 29, 2006 09:19 PM

Jim plays it all on the 'A' string and his guitar is in dropped D tuning if you want to be really accurate.

0 reply
Briteless 40 Nov 30, 2006 04:50 PM

It sounds like it might be played in octaves, but i dont know how its played, i guess whatever floats your boat.

guest
You may want to rate the tab now too:
select rating
Wanna post a correction for this tab? Suggest correction