Oops, an error
Loading. Please wait.

Taking Back Control Tab

version 1
version 1

Whole song

6,107 views 6 this week
3 commentsread comments
1 2 3 4 5
excellent!
x 4
add to favorites
launch autoscroll
font size
0
reset
how to read this tab
guitar tuner
Autoscroll
slow
fast
+/-
esc
set tempo
stop
Help us to improve Ultimate-Guitar.com Take our survey!
×
Author
Difficulty
intermediate
Well, this is a good song, but I prefer the Sparta of "Porcelain"....
this is my first tab, but I think that it's good...enjoy it....


Intro
Guitar 1 (0:00)
-----------------------------------|
-----------------------------------|     …and in the fourth time
-----------------------------------|  x4 you end with the first 5
--5-----7--8--3-----1--0-----------|     and you let it ring.
-----------------------------------|

Guitar 2 (0:12)
--------------------------------------------------------------|
-----6-------10-------6-------10-------5------5------5------5-|
--7-------7--------7-------7--------7------7------7------7----|
--------------------------------------------------------------|
--------------------------------------------------------------|
--------------------------------------------------------------|

--------------------------------------------------------------|
-----6-------10-------6-------10-------5------5------5------6-|...let ring
--7-------7--------7-------7--------7------7------7------7----|
--------------------------------------------------------------|
--------------------------------------------------------------|
--------------------------------------------------------------|

Verse (0:24)
The first time, there are no guitars

Guitar 2 (0:35) (with short delay)
--------5---------------------------5------------------|
-----6--------6--5---------6-----6--------6--5--/8-----|
--7---------------------------7------------------------|
-------------------------------------------------------|
-------------------------------------------------------|
-------------------------------------------------------|

Guitar 1 (0:47)
----- ----------------------------------------------------------|
-5/6- -xx-6-6-xx-6-6-xx-6-6-xx-6-6--xx-5-5-xx-5-5-xx-5-5-xx-5-5-|
-5/7- -xx-7-7-xx-7-7-xx-7-7-xx-7-7--xx-5-5-xx-5-5-xx-5-5-xx-5-5-| x2
-5/7- -xx-7-7-xx-7-7-xx-7-7-xx-7-7--xx-5-5-xx-5-5-xx-5-5-xx-5-5-|
-3/5- -xx-5-5-xx-5-5-xx-5-5-xx-5-5--xx-7-7-xx-7-7-xx-7-7-xx-7-7-|
----- ----------------------------------------------------------|

Guitar 2 (0:47)
----------------------------------------13-13-13-12-12-12----|
--15-x16----13-x16----15-x16----13-x10-----------------------|
-------------------------------------------------------------|
-------------------------------------------------------------|
-------------------------------------------------------------|
-------------------------------------------------------------|

Guitar 1 (0:59)
------------------------------------------------------------------------------| In this part we can
------------------------------------------------------------------------------| use 3 guitars, 'cause
------------------------------------------------------------------------------| we can hear the same
--5-----7--8--3-----1--0-----5-----7--8--3-----1--0---- chords that guitar 1--|
------------------------------------------------------- plays at 0:47---------|

Guitar 2 (0:59)
------13-------17-------13-------17-------12-------12-------12-------12-|
--15-------15-------15-------15-------15-------15-------15-------15-----|
------------------------------------------------------------------------|
------------------------------------------------------------------------|
------------------------------------------------------------------------|
------------------------------------------------------------------------|

------13-------17-------13-------17-------12-------12-------12----------|
--15-------15-------15-------15-------15-------15-------15-------15-----|
------------------------------------------------------------------------|
------------------------------------------------------------------------|
------------------------------------------------------------------------|
------------------------------------------------------------------------|

Chorus
Guitar 1 (1:11)
---------------------------------------------------------------------|
---------------------------------------------------------------------|
---------------------------------------------------------------------|
--0-0-0-0--2-2-2-2--3-3-3-3--7-7-7-7--5-5-5-5-5-5-5-5-5-5-5-5-5-5-5--| x4
--0-0-0-0--2-2-2-2--3-3-3-3--7-7-7-7--5-5-5-5-5-5-5-5-5-5-5-5-5-5-5--|
--0-0-0-0--2-2-2-2--3-3-3-3--7-7-7-7--5-5-5-5-5-5-5-5-5-5-5-5-5-5-5--|

Guitar 2 (1:11)
-------------------------|
--15-x15---------17-x8---|
----------15-x9----------| x2
-------------------------|
-------------------------|
-------------------------|
Guitar 2 (1:23)
-----------------------------------------------------------------------|
---------15--------------15--------------15-/17-x8--15-x15-------17----|x8
-14--15------12--14--15------12--14--15--------------------15-x9-------|
-----------------------------------------------------------------------|
-----------------------------------------------------------------------|
-----------------------------------------------------------------------|

Pre-Verse
Guitar 1 (1:35)
-------------------------------------------------------|
-------------------------------------------------------|
-------------------------------------------------------|
--5-----7--8--3-----1--0-----5-----7--8--3-----1--0----|
-------------------------------------------------------|

Guitar 2 (1:35) (with delay)* I'm not very sure about this part
--------8------10------8------|
--------8------10------8------| It sounds a little strange because also it
--------9------10------9------| has a rare effect.
--12v---10-----12------10-----|
------------------------------|
------------------------------|

Verse 2
Guitar 1 (1:47)
----------------------------------------------------------|
-xx-6-6-xx-6-6-xx-6-6-xx-6-6--xx-5-5-xx-5-5-xx-5-5-xx-5-5-|
-xx-7-7-xx-7-7-xx-7-7-xx-7-7--xx-5-5-xx-5-5-xx-5-5-xx-5-5-| x4
-xx-7-7-xx-7-7-xx-7-7-xx-7-7--xx-5-5-xx-5-5-xx-5-5-xx-5-5-|
-xx-5-5-xx-5-5-xx-5-5-xx-5-5--xx-7-7-xx-7-7-xx-7-7-xx-7-7-|
----------------------------------------------------------|

Guitar 2 (1:47)
------13-------17-------13-------17-------12-------12-------12-------12-|
--15-------15-------15-------15-------15-------15-------15-------15-----|
------------------------------------------------------------------------|
------------------------------------------------------------------------|
------------------------------------------------------------------------|
------------------------------------------------------------------------|

------13-------17-------13-------17-------12-------12-------12----------|
--15-------15-------15-------15-------15-------15-------15-------15-----|
------------------------------------------------------------------------|
------------------------------------------------------------------------|
------------------------------------------------------------------------|
------------------------------------------------------------------------|

Guitar 2 (1:59)
----------------------------------------13-13-13-12-12-12----|
--15-x16----13-x16----15-x16----13-x10-----------------------|
-------------------------------------------------------------|
-------------------------------------------------------------|
-------------------------------------------------------------|
-------------------------------------------------------------|


Chorus
Guitar 1 (2:11)
---------------------------------------------------------------------|
---------------------------------------------------------------------|
---------------------------------------------------------------------|
--0-0-0-0--2-2-2-2--3-3-3-3--7-7-7-7--5-5-5-5-5-5-5-5-5-5-5-5-5-5-5--| x4
--0-0-0-0--2-2-2-2--3-3-3-3--7-7-7-7--5-5-5-5-5-5-5-5-5-5-5-5-5-5-5--|
--0-0-0-0--2-2-2-2--3-3-3-3--7-7-7-7--5-5-5-5-5-5-5-5-5-5-5-5-5-5-5--|

Guitar 2 (2:11)
-------------------------|
--15-x15---------17-x8---|
----------15-x9----------| x2
-------------------------|
-------------------------|
-------------------------|
Guitar 2 (2:23)
-----------------------------------------------------------------------|
---------15--------------15--------------15-/17-x8--15-x15-------17----|x8
-14--15------12--14--15------12--14--15--------------------15-x9-------|
-----------------------------------------------------------------------|
-----------------------------------------------------------------------|
-----------------------------------------------------------------------|

Solo
Guitar 1 (2:35)
---------------------------------------------------------------------|
---------------------------------------------------------------------|
---------------------------------------------------------------------|
--3---------------0--0-0-0-0--3---0--0-0-0-0---3---3-----------------|
--3-let-ring------0--0-0-0-0--3---0--0-0-0-0---3---3-let-ring--------|
--3---------------0--0-0-0-0--3---0--0-0-0-0---3---3-----------------|

Guitar 2 (2:35)       This 2 parts (^ and v) are sync
--------------------------------------------------------------------|
--------------------------------------------------------------------|
--10--9--5--7--7-----------------------------------10--9--5--7--7---|
--x---x--x--x--x-----------------------------------x---x--x--x--x---|
--8---7--3--5--5-----------------------------------8---7--3--5--5---|
--------------------------------------------------------------------|

Guitar 1 (2:44)
-----------------------------    ------------------------------------*
-----------------------------    --/15-x8----------------------------*
-----------------------------    ---------14-x8--15-x8--14-x4--12-x4-*
--0------2------5------2----- x2 ------------------------------------*
--0-x8---2-x8---5-x8---2-x8--    ------------------------------------*
--0------2------5------2-----    ------------------------------------*
            *Or in the second time of Guitar 1, you can do this*
Guitar 2 (2:44)
-------------------------------------------------|
--9-----12---9-----14---9-----12---9--10-14--7---|
--x-x5--x----x-x5--x----x-x5--x----x--x--x---x---| x4
--7-----10---7-----12---7-----10---7--8--12--5---|
-------------------------------------------------|
-------------------------------------------------|

Guitar 1 (2:56)
--------------------------------------------------------------| Another time
-----6-------10-------6-------10-------5------5------5------5-| we can use 3
--7-------7--------7-------7--------7------7------7------7----| or 4!
--------------------------------------------------------------|
--------------------------------------------------------------|
--------------------------------------------------------------|

--------------------------------------------------------------|
-----6-------10-------6-------10-------5------5------5------6-|...let ring
--7-------7--------7-------7--------7------7------7------7----|
--------------------------------------------------------------|
--------------------------------------------------------------|
--------------------------------------------------------------|

Guitar 2 (3:07)
----------------------------    ----------------------------|
----9-9--10-10--14-14--7-7--    ----9-9--10-10--14-14-14-14-|
----x-x--x--x---x--x---x-x-- x3 ----x-x--x--x---x--x--x--x--|
----7-7--8--8---12-12--5-5--    ----7-7--8--8---12-12-12-12-|
----------------------------    ----------------------------|
----------------------------    ----------------------------|

Chorus
Guitar 1 (3:13)
---------------------------------------------------------------------|
---------------------------------------------------------------------|
---------------------------------------------------------------------|
--0-0-0-0--2-2-2-2--3-3-3-3--7-7-7-7--5-5-5-5-5-5-5-5-5-5-5-5-5-5-5--| x4
--0-0-0-0--2-2-2-2--3-3-3-3--7-7-7-7--5-5-5-5-5-5-5-5-5-5-5-5-5-5-5--|
--0-0-0-0--2-2-2-2--3-3-3-3--7-7-7-7--5-5-5-5-5-5-5-5-5-5-5-5-5-5-5--|

Guitar 2 (3:13)
-------------------------|
--15-x15---------17-x8---|
----------15-x9----------| x2
-------------------------|
-------------------------|
-------------------------|
Guitar 2 (3:25)
-----------------------------------------------------------------------|
---------15--------------15--------------15-/17-x8--15-x15-------17----|x8
-14--15------12--14--15------12--14--15--------------------15-x9-------|
-----------------------------------------------------------------------|
-----------------------------------------------------------------------|
-----------------------------------------------------------------------|


Este tab va para el Tunman, el Troya y Sergio.
Al Cha nel, VIVA MEXICO!!!
Suggest correction
comments
print report bad tab
3 comments total.
0 reply
senor_penguin 60 wrote on July 12 2007, 08:27 pm

thanx alot for doing this man, sounds 100% awesome

0 reply
goldmember1217 30 wrote on September 16 2007, 04:54 pm

Nice job, dude. 5*

0 reply
packerschris 10 wrote on January 13 2009, 06:02 pm

I found it near perfect. 5*

guest
You may want to rate the tab now too:
select rating
Please do not post tabs as comments. Select "correction" instead!