Oops, an error
Loading. Please wait.

Travel By Bloodline Tab

279 views 1 this week
no commentswrite comment
1 2 3 4 5
3 more votes to show rating
add to favorites
launch autoscroll
font size
0
reset
how to read this tab
guitar tuner
Autoscroll
slow
fast
+/-
esc
set tempo
stop
Help us to improve Ultimate-Guitar.com Take our survey!
×
Author
Band: Sparta
Song: Travel By Bloodline
Album: Porcelain
E-mail:Flemingoboy@adelphia.net
Tabber: Tom


Jim's Parts
Intro/Chorus
|------------------xxxx-|
|------------------xxxx-|
|------------------xxxx-|
|-0~---6~-6--7~----xxxx-|
|-0~---6~-6--7~----xxxx-|
|-0~---6~-6--7~----xxxx-|

Verse
|--------------------------------------------|
|--------------------------------------------|
|--------------------------------------------|
|-00000000-77777777-55555555555555555555-4-2-|
|-00000000-77777777-55555555555555555555-4-2-|
|-00000000-77777777-55555555555555555555-4-2-|

Prechorus
|------------------|
|------------------|
|------------------|
|-0000000000000000-|
|-0000000000000000-|
|-0000000000000000-|
pm................

Pre Bridge
|---------|   
|---------|   
|---------|   
|-7-6-4-7-|   
|---------|   
|---------|   
He plays this once
before the other guitar's
part comes in.

Bridge (real softly getting louder)
|---------------------------------|
|---------------------------------|
|---------------------------------|
|-444444-99999999-777777777777-9\-|
|-444444-99999999-777777777777-9\-|
|-444444-99999999-777777777777-9\-|

Post Bridge
|--------xxxx-|
|--------xxxx-|
|--------xxxx-|
|-555555-xxxx-|
|-555555-xxxx-|
|-555555-xxxx-|


Guitarist 2's parts (Cuz Paul's out of the band now)
Intro/Chorus                1st time                 2nd time 
|-----------------xxxx-|----------------------|---------------------|
|-----------------xxxx-|----------------------|---------------------|
|-----------------xxxx-|----------------------|---------------------|
|-0~----6~-6-7~---xxxx-|-0~---6~-6-7~-7-9-7---|-0~---6~-7-6-4-6-7-6-|
|-0~----6~-6-7~---xxxx-|-0~---6~-6-7~-------9-|-0~---6~-7-6-4-6-7-6-|
|-0~----6~-6-7~---xxxx-|-0~---6~-6-7~---------|-0~---6~-7-6-4-6-7-6-|

Verse
|-----------------------------------------------------------------|
|-----------------------------------------------------------------|
|-1212121212121212-1111111111111111-121212121212121212121212-11-9-|
|-x-x-x-x-x-x-x-x--x-x-x-x-x-x-x-x--x-x-x-x-x-x-x-x-x-x-x-x--x--x-|
|-1010101010101010-9-9-9-9-9-9-9-9--101010101010101010101010-9--7-|
|-----------------------------------------------------------------|

Prechorus (w/ delay)(Those are teen numbers not ones and fours)
|-1414141414141414-12121212-----------------------------------------------|
|---------------------------15151515-14141414----------14141414------1515-|
|---------------------------------------------14141414----------1414------|
|-------------------------------------------------------------------------|
|-------------------------------------------------------------------------|
|-------------------------------------------------------------------------|

Pre Bridge (doesn't play)

Bridge (w/delay) 
             1st part                           2nd part
|-----------------------------------|-12-12------------------|
|-7-7-7-7---------10-10-10-10-------|------------------------|
|---------9-9-9-9-------------6-6/7-|-------11-11--11--9--6--|
|-----------------------------------|------------------------|
|-----------------------------------|------------------------|
|-----------------------------------|------------------------|

Post Bridge (same as Jim's)



Song Order
Intro (Jim 4x,Gtr. 2 main part,1st,main, 2nd)
Verse (4x)
Prechorus (1x)
Chorus (Jim 4x,Gtr. 2 main part,1st,main, 2nd)
Verse (4x)
Prechorus (1x)
Chorus (Jim 8x, Gtr. 2 main,1st,main,main,main,1st,main,2nd)
Prebridge
Bridge (4x Jim, Gtr. 2 1st 2x 2nd 2x)
Post Bridge (2x)
Chorus (2x main)
Prechorus (2x)
Chorus (4x main)
Suggest correction
Give kudos to tab author, rate the tab!
1 2 3 4 5
comments
print report bad tab
guest
You may want to rate the tab now too:
select rating
Wanna post a correction for this tab? Suggest correction