Oops, an error
Loading. Please wait.

While Oceana Sleeps Bass Tab

version 1
version 1

Whole song

Interactive

1,298 views 1 this week
1 commentread comment
1 2 3 4 5
please rate
add to favorites
launch autoscroll
font size
0
reset
guitar tuner
Autoscroll
slow
fast
+/-
esc
set tempo
stop
Help us to improve Ultimate-Guitar.com Take our survey!
×
Author
Tuning
D A D G B E
Drop D Tuning

Verse
G-----------------------------------------------------------------------|
D-12-12-12-14-14-14-9-9-9-9-9-9-9-9-9-9---------------------------------|
A---------------------------------------9-9-9-5-5-5-0-0-0-0-0-0-0-0-0-0-|
D-----------------------------------------------------------------------|

Chorus
G---------------------------------------------------------------------|
D---------------------------------------------------------------------|
A-----------------7-7-7-7-7-7-7-7-9-9-9-9-9-9-9-9-5-5-5-5-12-12-12-12-|
D-0-0-0-0-0-0-0-0-----------------------------------------------------|

After Second Chorus
G-----------------------------------------------------------------|
D-----------------------------------------------------------------|
A---------------------------------2-2-2-2-2-2-4-4-4-4-4-4-4-4-4-4-|
D-4-4-4-4-4-4-4-4-4-4-4-4-4-4-4-4---------------------------------|

G--------------------------------|
D--------------------------------|
A--------------------------------|
D-0----4----9--------8----7----5-|

End On
G---
D---
A---
D-0-
Suggest correction
Give kudos to tab author, rate the tab!
1 2 3 4 5
comments
print report bad tab
1 comment total.
0 reply
311down4unity 10 wrote on July 3 2007, 03:06 pm

great tab, i'm glad i can play this kick ass song now

guest
You may want to rate the tab now too:
select rating
Wanna post a correction for this tab? Suggest correction