Oops, an error
Loading. Please wait.

Tetap Mencintai Tab

16 views 1 this week
no commentswrite comment
1 2 3 4 5
3 more votes to show rating
add to favorites
launch autoscroll
font size
0
reset
how to read this tab
guitar tuner
Autoscroll
slow
fast
+/-
esc
set tempo
stop
Help us to improve Ultimate-Guitar.com Take our survey!
×
Author
[Intro] 

Am Dm G C (x2)

e|-0----------------|------------------0----|
B|----1-1-0--1------|------------0--1-------|
G|-------------2----|-(2)-2-2-2-------------|
D|------------------|-----------------------|
A|------------------|-----------------------|
E|------------------|-----------------------|

e|-1--1-1-0--3--1----|-1-5--3-1-0-------|
B|-------------------|-------------3----|
G|-------------------|------------------|
D|-------------------|------------------|
A|-------------------|------------------|
E|-------------------|------------------|

e|------------------|-----------------------|
B|-3--0-0----0------|--------------0--3-----|
G|--------2----0----|-(0)-0-0-0--2----------|
D|------------------|-----------------------|
A|------------------|-----------------------|
E|------------------|-----------------------|

e|-0--0-0----1--0----|-0----1--0--------|
B|--------3----------|------------------|
G|-------------------|------------------|
D|-------------------|------------------|
A|-------------------|------------------|
E|-------------------|------------------|

(ulang x2) 

part last tu tukar kepada :

e|-0----1--0--------|-------------|
B|-----------3-1-0--|-------------|
G|------------------|--2----------|
D|------------------|-------------|
A|------------------|-------------|
E|------------------|-------------|

Am                           Dm
Ku akan pergi meninggalkan dirimu sendiri
G                             C 
Jika kau ulangi kesalahan yang kedua kali
Am                         Dm 
Selama ini ku mencintaimu sepenuh hati
G                               C
Tapi kau khianati dan mencintai ke lain hati

      F                      C
Ku ingin kau hargai cinta yang tlah ku beri
   Dm                  E
Cinta yang tlah ku miliki
      F                      C
Ku ingin kau mengerti cinta yang tlah ku beri
    Dm               E 
Dan jagalah sampai mati

     Am                  Dm
Biarpun kau sakiti, biarpun kau lukai
   G              C
Aku tetap mencintai
    Am                   Dm
Biarpun kau sakiti, biarpun kau lukai
    G              E
Aku tetap cinta mati

Am Dm G C

(ulang sampai penat)


[Outro]
*ulang tabs intro


[Bass tab]

        Am                 Dm         
G|-----------------|------------2----|
D|------------2----|-0----0--3-------|
A|-0----0--3-------|-----------------|
E|-----------------|-----------------|

         G                C
G|-----------------|------------0----|
D|------------0----|---------2-------|
A|---------2-------|-3----3----------|
E|-3----3----------|-----------------|



************************************

| (n)  let ring

************************************
Suggest correction
Give kudos to tab author, rate the tab!
1 2 3 4 5
comments
print report bad tab
guest
You may want to rate the tab now too:
select rating
Wanna post a correction for this tab? Suggest correction